  0
SECTION
  2
HEADER
  9
$ACADVER
  1
AC1009
  9
$DWGCODEPAGE
  3
ansi_1252
  9
$INSBASE
 10
0.0
 20
0.0
 30
0.0
  9
$EXTMIN
 10
0.7942215873512737
 20
-49.35955951707909
 30
0.0
  9
$EXTMAX
 10
124.5104398747281
 20
48.52655530084915
 30
0.0
  9
$LIMMIN
 10
0.0
 20
0.0
  9
$LIMMAX
 10
12.0
 20
9.0
  9
$ORTHOMODE
 70
     0
  9
$REGENMODE
 70
     1
  9
$FILLMODE
 70
     1
  9
$QTEXTMODE
 70
     0
  9
$MIRRTEXT
 70
     1
  9
$DRAGMODE
 70
     2
  9
$LTSCALE
 40
1.0
  9
$OSMODE
 70
    37
  9
$ATTMODE
 70
     1
  9
$TEXTSIZE
 40
0.2
  9
$TRACEWID
 40
0.05
  9
$TEXTSTYLE
  7
STANDARD
  9
$CLAYER
  8
0
  9
$CELTYPE
  6
BYLAYER
  9
$CECOLOR
 62
   256
  9
$DIMSCALE
 40
1.0
  9
$DIMASZ
 40
0.18
  9
$DIMEXO
 40
0.0625
  9
$DIMDLI
 40
0.38
  9
$DIMRND
 40
0.0
  9
$DIMDLE
 40
0.0
  9
$DIMEXE
 40
0.18
  9
$DIMTP
 40
0.0
  9
$DIMTM
 40
0.0
  9
$DIMTXT
 40
0.18
  9
$DIMCEN
 40
0.09
  9
$DIMTSZ
 40
0.0
  9
$DIMTOL
 70
     0
  9
$DIMLIM
 70
     0
  9
$DIMTIH
 70
     1
  9
$DIMTOH
 70
     1
  9
$DIMSE1
 70
     0
  9
$DIMSE2
 70
     0
  9
$DIMTAD
 70
     0
  9
$DIMZIN
 70
     0
  9
$DIMBLK
  1

  9
$DIMASO
 70
     1
  9
$DIMSHO
 70
     1
  9
$DIMPOST
  1

  9
$DIMAPOST
  1

  9
$DIMALT
 70
     0
  9
$DIMALTD
 70
     2
  9
$DIMALTF
 40
25.4
  9
$DIMLFAC
 40
1.0
  9
$DIMTOFL
 70
     0
  9
$DIMTVP
 40
0.0
  9
$DIMTIX
 70
     0
  9
$DIMSOXD
 70
     0
  9
$DIMSAH
 70
     0
  9
$DIMBLK1
  1

  9
$DIMBLK2
  1

  9
$DIMSTYLE
  2
STANDARD
  9
$DIMCLRD
 70
     0
  9
$DIMCLRE
 70
     0
  9
$DIMCLRT
 70
     0
  9
$DIMTFAC
 40
1.0
  9
$DIMGAP
 40
0.09
  9
$LUNITS
 70
     2
  9
$LUPREC
 70
     4
  9
$SKETCHINC
 40
0.1
  9
$FILLETRAD
 40
0.5
  9
$AUNITS
 70
     0
  9
$AUPREC
 70
     0
  9
$MENU
  1
.
  9
$ELEVATION
 40
0.0
  9
$PELEVATION
 40
0.0
  9
$THICKNESS
 40
0.0
  9
$LIMCHECK
 70
     0
  9
$CHAMFERA
 40
0.0
  9
$CHAMFERB
 40
0.0
  9
$SKPOLY
 70
     0
  9
$TDCREATE
 40
2454910.5
  9
$TDUPDATE
 40
2457522.442307164
  9
$TDINDWG
 40
0.0000000116
  9
$TDUSRTIMER
 40
0.0000000116
  9
$USRTIMER
 70
     1
  9
$ANGBASE
 50
0.0
  9
$ANGDIR
 70
     0
  9
$PDMODE
 70
     0
  9
$PDSIZE
 40
0.0
  9
$PLINEWID
 40
0.0
  9
$COORDS
 70
     1
  9
$SPLFRAME
 70
     0
  9
$SPLINETYPE
 70
     6
  9
$SPLINESEGS
 70
     8
  9
$ATTDIA
 70
     0
  9
$ATTREQ
 70
     1
  9
$HANDLING
 70
     1
  9
$HANDSEED
  5
4AE
  9
$SURFTAB1
 70
     6
  9
$SURFTAB2
 70
     6
  9
$SURFTYPE
 70
     6
  9
$SURFU
 70
     6
  9
$SURFV
 70
     6
  9
$UCSNAME
  2

  9
$UCSORG
 10
0.0
 20
0.0
 30
0.0
  9
$UCSXDIR
 10
1.0
 20
0.0
 30
0.0
  9
$UCSYDIR
 10
0.0
 20
1.0
 30
0.0
  9
$PUCSNAME
  2

  9
$PUCSORG
 10
0.0
 20
0.0
 30
0.0
  9
$PUCSXDIR
 10
1.0
 20
0.0
 30
0.0
  9
$PUCSYDIR
 10
0.0
 20
1.0
 30
0.0
  9
$USERI1
 70
     0
  9
$USERI2
 70
     0
  9
$USERI3
 70
     0
  9
$USERI4
 70
     0
  9
$USERI5
 70
     0
  9
$USERR1
 40
0.0
  9
$USERR2
 40
0.0
  9
$USERR3
 40
0.0
  9
$USERR4
 40
0.0
  9
$USERR5
 40
0.0
  9
$WORLDVIEW
 70
     1
  9
$SHADEDGE
 70
     3
  9
$SHADEDIF
 70
    70
  9
$TILEMODE
 70
     1
  9
$MAXACTVP
 70
    64
  9
$PLIMCHECK
 70
     0
  9
$PEXTMIN
 10
1.000000000000000E+20
 20
1.000000000000000E+20
 30
1.000000000000000E+20
  9
$PEXTMAX
 10
-1.000000000000000E+20
 20
-1.000000000000000E+20
 30
-1.000000000000000E+20
  9
$PLIMMIN
 10
0.0
 20
0.0
  9
$PLIMMAX
 10
12.0
 20
9.0
  9
$UNITMODE
 70
     0
  9
$VISRETAIN
 70
     1
  9
$PLINEGEN
 70
     0
  9
$PSLTSCALE
 70
     1
  0
ENDSEC
  0
SECTION
  2
TABLES
  0
TABLE
  2
VPORT
 70
     1
  0
VPORT
  2
*ACTIVE
 70
     0
 10
0.0
 20
0.0
 11
1.0
 21
1.0
 12
10.42990654205607
 22
4.5
 13
0.0
 23
0.0
 14
0.5
 24
0.5
 15
0.5
 25
0.5
 16
0.0
 26
0.0
 36
1.0
 17
0.0
 27
0.0
 37
0.0
 40
9.0
 41
1.972972972850329
 42
50.0
 43
0.0
 44
0.0
 50
0.0
 51
0.0
 71
     0
 72
   100
 73
     1
 74
     3
 75
     0
 76
     0
 77
     0
 78
     0
  0
ENDTAB
  0
TABLE
  2
LTYPE
 70
     2
  0
LTYPE
  2
CONTINUOUS
 70
     0
  3
Solid line
 72
    65
 73
     0
 40
0.0
  0
LTYPE
  2
CONTINUOUS2
 70
     0
  3
Solid Line
 72
    65
 73
     0
 40
0.0
  0
ENDTAB
  0
TABLE
  2
LAYER
 70
     2
  0
LAYER
  2
0
 70
     0
 62
     7
  6
CONTINUOUS
  0
LAYER
  2
LAYER_1
 70
     0
 62
    18
  6
CONTINUOUS
  0
ENDTAB
  0
TABLE
  2
STYLE
 70
     1
  0
STYLE
  2
STANDARD
 70
     0
 40
0.0
 41
1.0
 50
0.0
 71
     0
 42
0.2
  3
txt
  4

  0
ENDTAB
  0
TABLE
  2
VIEW
 70
     0
  0
ENDTAB
  0
TABLE
  2
UCS
 70
     0
  0
ENDTAB
  0
TABLE
  2
APPID
 70
     1
  0
APPID
  2
ACAD
 70
     0
  0
ENDTAB
  0
TABLE
  2
DIMSTYLE
 70
     1
  0
DIMSTYLE
  2
STANDARD
 70
     0
  3

  4

  5

  6

  7

 40
1.0
 41
0.18
 42
0.0625
 43
0.38
 44
0.18
 45
0.0
 46
0.0
 47
0.0
 48
0.0
140
0.18
141
0.09
142
0.0
143
25.4
144
1.0
145
0.0
146
1.0
147
0.09
 71
     0
 72
     0
 73
     1
 74
     1
 75
     0
 76
     0
 77
     0
 78
     0
170
     0
171
     2
172
     0
173
     0
174
     0
175
     0
176
     0
177
     0
178
     0
  0
ENDTAB
  0
ENDSEC
  0
SECTION
  2
BLOCKS
  0
BLOCK
  8
0
  2
$MODEL_SPACE
 70
     0
 10
0.0
 20
0.0
 30
0.0
  3
$MODEL_SPACE
  1

  0
ENDBLK
  5
21
  8
0
  0
BLOCK
 67
     1
  8
0
  2
$PAPER_SPACE
 70
     0
 10
0.0
 20
0.0
 30
0.0
  3
$PAPER_SPACE
  1

  0
ENDBLK
  5
1D
 67
     1
  8
0
  0
ENDSEC
  0
SECTION
  2
ENTITIES
  0
POLYLINE
  5
70
  8
LAYER_1
 66
     1
 10
0.0
 20
0.0
 30
0.0
 70
     1
  0
VERTEX
  5
C2
  8
LAYER_1
 10
1.253011237814981
 20
-22.32930501801514
 30
0.0
  0
VERTEX
  5
C3
  8
LAYER_1
 10
1.253011237814981
 20
-48.84688279544415
 30
0.0
  0
VERTEX
  5
C4
  8
LAYER_1
 10
72.91035206505228
 20
-48.84688279544412
 30
0.0
  0
VERTEX
  5
C5
  8
LAYER_1
 10
72.92305233319476
 20
-48.8465388837955
 30
0.0
  0
VERTEX
  5
C6
  8
LAYER_1
 10
72.93545453483034
 20
-48.84551740700544
 30
0.0
  0
VERTEX
  5
C7
  8
LAYER_1
 10
72.94756180801804
 20
-48.8438337523076
 30
0.0
  0
VERTEX
  5
C8
  8
LAYER_1
 10
72.9593772908168
 20
-48.84150330693564
 30
0.0
  0
VERTEX
  5
C9
  8
LAYER_1
 10
72.97090412128563
 20
-48.83854145812327
 30
0.0
  0
VERTEX
  5
CA
  8
LAYER_1
 10
72.98214543748351
 20
-48.83496359310414
 30
0.0
  0
VERTEX
  5
CB
  8
LAYER_1
 10
72.99310437746944
 20
-48.83078509911194
 30
0.0
  0
VERTEX
  5
CC
  8
LAYER_1
 10
73.00378407930238
 20
-48.82602136338036
 30
0.0
  0
VERTEX
  5
CD
  8
LAYER_1
 10
73.01418768104134
 20
-48.82068777314304
 30
0.0
  0
VERTEX
  5
CE
  8
LAYER_1
 10
73.02431832074527
 20
-48.81479971563368
 30
0.0
  0
VERTEX
  5
CF
  8
LAYER_1
 10
73.03417913647317
 20
-48.80837257808595
 30
0.0
  0
VERTEX
  5
D0
  8
LAYER_1
 10
73.04377326628402
 20
-48.80142174773353
 30
0.0
  0
VERTEX
  5
D1
  8
LAYER_1
 10
73.05310384823682
 20
-48.79396261181009
 30
0.0
  0
VERTEX
  5
D2
  8
LAYER_1
 10
73.06217402039056
 20
-48.78601055754931
 30
0.0
  0
VERTEX
  5
D3
  8
LAYER_1
 10
73.07098692080419
 20
-48.77758097218486
 30
0.0
  0
VERTEX
  5
D4
  8
LAYER_1
 10
73.07954568753672
 20
-48.76868924295043
 30
0.0
  0
VERTEX
  5
D5
  8
LAYER_1
 10
73.08785345864715
 20
-48.75935075707967
 30
0.0
  0
VERTEX
  5
D6
  8
LAYER_1
 10
73.09591337219442
 20
-48.7495809018063
 30
0.0
  0
VERTEX
  5
D7
  8
LAYER_1
 10
73.10372856623754
 20
-48.73939506436395
 30
0.0
  0
VERTEX
  5
D8
  8
LAYER_1
 10
73.1113021788355
 20
-48.72880863198633
 30
0.0
  0
VERTEX
  5
D9
  8
LAYER_1
 10
73.11863734804729
 20
-48.71783699190708
 30
0.0
  0
VERTEX
  5
DA
  8
LAYER_1
 10
73.12573721193186
 20
-48.70649553135991
 30
0.0
  0
VERTEX
  5
DB
  8
LAYER_1
 10
73.13260490854822
 20
-48.69479963757847
 30
0.0
  0
VERTEX
  5
DC
  8
LAYER_1
 10
73.13924357595535
 20
-48.68276469779646
 30
0.0
  0
VERTEX
  5
DD
  8
LAYER_1
 10
73.14565635221223
 20
-48.67040609924754
 30
0.0
  0
VERTEX
  5
DE
  8
LAYER_1
 10
73.15184637537786
 20
-48.65773922916539
 30
0.0
  0
VERTEX
  5
DF
  8
LAYER_1
 10
73.15781678351124
 20
-48.64477947478369
 30
0.0
  0
VERTEX
  5
E0
  8
LAYER_1
 10
73.1635707146713
 20
-48.63154222333611
 30
0.0
  0
VERTEX
  5
E1
  8
LAYER_1
 10
73.17444169830748
 20
-48.60429677817802
 30
0.0
  0
VERTEX
  5
E2
  8
LAYER_1
 10
73.18448443075832
 20
-48.57612599156053
 30
0.0
  0
VERTEX
  5
E3
  8
LAYER_1
 10
73.19372401649568
 20
-48.54715296135305
 30
0.0
  0
VERTEX
  5
E4
  8
LAYER_1
 10
73.20218555999145
 20
-48.51750078542499
 30
0.0
  0
VERTEX
  5
E5
  8
LAYER_1
 10
73.20989416571751
 20
-48.48729256164575
 30
0.0
  0
VERTEX
  5
E6
  8
LAYER_1
 10
73.21687493814572
 20
-48.45665138788474
 30
0.0
  0
VERTEX
  5
E7
  8
LAYER_1
 10
73.22315298174797
 20
-48.42570036201138
 30
0.0
  0
VERTEX
  5
E8
  8
LAYER_1
 10
73.22875340099611
 20
-48.39456258189506
 30
0.0
  0
VERTEX
  5
E9
  8
LAYER_1
 10
73.23370130036201
 20
-48.36336114540519
 30
0.0
  0
VERTEX
  5
EA
  8
LAYER_1
 10
73.2380217843176
 20
-48.33221915041118
 30
0.0
  0
VERTEX
  5
EB
  8
LAYER_1
 10
73.2417399573347
 20
-48.30125969478245
 30
0.0
  0
VERTEX
  5
EC
  8
LAYER_1
 10
73.24488092388522
 20
-48.2706058763884
 30
0.0
  0
VERTEX
  5
ED
  8
LAYER_1
 10
73.24746978844102
 20
-48.24038079309844
 30
0.0
  0
VERTEX
  5
EE
  8
LAYER_1
 10
73.24953165547399
 20
-48.21070754278196
 30
0.0
  0
VERTEX
  5
EF
  8
LAYER_1
 10
73.251091629456
 20
-48.18170922330839
 30
0.0
  0
VERTEX
  5
F0
  8
LAYER_1
 10
73.2521748148589
 20
-48.15350893254713
 30
0.0
  0
VERTEX
  5
F1
  8
LAYER_1
 10
73.25280631615462
 20
-48.12622976836757
 30
0.0
  0
VERTEX
  5
F2
  8
LAYER_1
 10
73.253011237815
 20
-48.09999482863915
 30
0.0
  0
VERTEX
  5
F3
  8
LAYER_1
 10
73.253011237815
 20
-34.4692894344483
 30
0.0
  0
VERTEX
  5
F4
  8
LAYER_1
 10
73.25278225628581
 20
-34.43762468078754
 30
0.0
  0
VERTEX
  5
F5
  8
LAYER_1
 10
73.25209767255465
 20
-34.40595993998859
 30
0.0
  0
VERTEX
  5
F6
  8
LAYER_1
 10
73.25096102790613
 20
-34.37429778607563
 30
0.0
  0
VERTEX
  5
F7
  8
LAYER_1
 10
73.2493758636248
 20
-34.3426407930728
 30
0.0
  0
VERTEX
  5
F8
  8
LAYER_1
 10
73.2473457209953
 20
-34.31099153500426
 30
0.0
  0
VERTEX
  5
F9
  8
LAYER_1
 10
73.2448741413022
 20
-34.27935258589417
 30
0.0
  0
VERTEX
  5
FA
  8
LAYER_1
 10
73.2419646658301
 20
-34.24772651976664
 30
0.0
  0
VERTEX
  5
FB
  8
LAYER_1
 10
73.2386208358636
 20
-34.21611591064587
 30
0.0
  0
VERTEX
  5
FC
  8
LAYER_1
 10
73.2348461926873
 20
-34.18452333255598
 30
0.0
  0
VERTEX
  5
FD
  8
LAYER_1
 10
73.23064427758578
 20
-34.15295135952115
 30
0.0
  0
VERTEX
  5
FE
  8
LAYER_1
 10
73.22601863184364
 20
-34.1214025655655
 30
0.0
  0
VERTEX
  5
FF
  8
LAYER_1
 10
73.22097279674549
 20
-34.0898795247132
 30
0.0
  0
VERTEX
  5
100
  8
LAYER_1
 10
73.2155103135759
 20
-34.05838481098839
 30
0.0
  0
VERTEX
  5
101
  8
LAYER_1
 10
73.2096347236195
 20
-34.02692099841524
 30
0.0
  0
VERTEX
  5
102
  8
LAYER_1
 10
73.20334956816089
 20
-33.99549066101787
 30
0.0
  0
VERTEX
  5
103
  8
LAYER_1
 10
73.19665838848461
 20
-33.96409637282046
 30
0.0
  0
VERTEX
  5
104
  8
LAYER_1
 10
73.1895647258753
 20
-33.93274070784716
 30
0.0
  0
VERTEX
  5
105
  8
LAYER_1
 10
73.18207212161754
 20
-33.90142624012211
 30
0.0
  0
VERTEX
  5
106
  8
LAYER_1
 10
73.17418411699592
 20
-33.87015554366946
 30
0.0
  0
VERTEX
  5
107
  8
LAYER_1
 10
73.16590425329505
 20
-33.83893119251338
 30
0.0
  0
VERTEX
  5
108
  8
LAYER_1
 10
73.15723607179953
 20
-33.807755760678
 30
0.0
  0
VERTEX
  5
109
  8
LAYER_1
 10
73.14818311379393
 20
-33.77663182218748
 30
0.0
  0
VERTEX
  5
10A
  8
LAYER_1
 10
73.13874892056288
 20
-33.74556195106598
 30
0.0
  0
VERTEX
  5
10B
  8
LAYER_1
 10
73.12893703339093
 20
-33.71454872133764
 30
0.0
  0
VERTEX
  5
10C
  8
LAYER_1
 10
73.11875099356271
 20
-33.6835947070266
 30
0.0
  0
VERTEX
  5
10D
  8
LAYER_1
 10
73.10819434236281
 20
-33.65270248215705
 30
0.0
  0
VERTEX
  5
10E
  8
LAYER_1
 10
73.09727062107584
 20
-33.6218746207531
 30
0.0
  0
VERTEX
  5
10F
  8
LAYER_1
 10
73.08598337098636
 20
-33.59111369683892
 30
0.0
  0
VERTEX
  5
110
  8
LAYER_1
 10
73.07433613337898
 20
-33.56042228443867
 30
0.0
  0
VERTEX
  5
111
  8
LAYER_1
 10
73.06233244953832
 20
-33.52980295757649
 30
0.0
  0
VERTEX
  5
112
  8
LAYER_1
 10
73.04997586074893
 20
-33.49925829027653
 30
0.0
  0
VERTEX
  5
113
  8
LAYER_1
 10
73.03726990829544
 20
-33.46879085656295
 30
0.0
  0
VERTEX
  5
114
  8
LAYER_1
 10
73.02421813346243
 20
-33.4384032304599
 30
0.0
  0
VERTEX
  5
115
  8
LAYER_1
 10
73.01082407753451
 20
-33.40809798599152
 30
0.0
  0
VERTEX
  5
116
  8
LAYER_1
 10
72.99709128179626
 20
-33.37787769718198
 30
0.0
  0
VERTEX
  5
117
  8
LAYER_1
 10
72.98302328753229
 20
-33.34774493805541
 30
0.0
  0
VERTEX
  5
118
  8
LAYER_1
 10
72.96862363602719
 20
-33.31770228263598
 30
0.0
  0
VERTEX
  5
119
  8
LAYER_1
 10
72.95389586856555
 20
-33.28775230494783
 30
0.0
  0
VERTEX
  5
11A
  8
LAYER_1
 10
72.93884352643198
 20
-33.25789757901511
 30
0.0
  0
VERTEX
  5
11B
  8
LAYER_1
 10
72.92347015091104
 20
-33.22814067886199
 30
0.0
  0
VERTEX
  5
11C
  8
LAYER_1
 10
72.90777928328737
 20
-33.1984841785126
 30
0.0
  0
VERTEX
  5
11D
  8
LAYER_1
 10
72.89177446484553
 20
-33.1689306519911
 30
0.0
  0
VERTEX
  5
11E
  8
LAYER_1
 10
72.87545923687013
 20
-33.13948267332165
 30
0.0
  0
VERTEX
  5
11F
  8
LAYER_1
 10
72.85883714064576
 20
-33.11014281652839
 30
0.0
  0
VERTEX
  5
120
  8
LAYER_1
 10
72.84191171745702
 20
-33.08091365563547
 30
0.0
  0
VERTEX
  5
121
  8
LAYER_1
 10
72.82468650858853
 20
-33.05179776466704
 30
0.0
  0
VERTEX
  5
122
  8
LAYER_1
 10
72.80716505532486
 20
-33.02279771764727
 30
0.0
  0
VERTEX
  5
123
  8
LAYER_1
 10
72.7893508989506
 20
-32.9939160886003
 30
0.0
  0
VERTEX
  5
124
  8
LAYER_1
 10
72.77124758075036
 20
-32.96515545155027
 30
0.0
  0
VERTEX
  5
125
  8
LAYER_1
 10
72.7528586420087
 20
-32.93651838052135
 30
0.0
  0
VERTEX
  5
126
  8
LAYER_1
 10
72.73418762401027
 20
-32.90800744953768
 30
0.0
  0
VERTEX
  5
127
  8
LAYER_1
 10
72.71523806803964
 20
-32.87962523262342
 30
0.0
  0
VERTEX
  5
128
  8
LAYER_1
 10
72.67651750732016
 20
-32.82325723709971
 30
0.0
  0
VERTEX
  5
129
  8
LAYER_1
 10
72.63672529012702
 20
-32.76743498614344
 30
0.0
  0
VERTEX
  5
12A
  8
LAYER_1
 10
72.59588974673699
 20
-32.71217907194783
 30
0.0
  0
VERTEX
  5
12B
  8
LAYER_1
 10
72.55403920742683
 20
-32.65751008670608
 30
0.0
  0
VERTEX
  5
12C
  8
LAYER_1
 10
72.51120200247331
 20
-32.6034486226114
 30
0.0
  0
VERTEX
  5
12D
  8
LAYER_1
 10
72.46740646215318
 20
-32.550015271857
 30
0.0
  0
VERTEX
  5
12E
  8
LAYER_1
 10
72.42268091674322
 20
-32.4972306266361
 30
0.0
  0
VERTEX
  5
12F
  8
LAYER_1
 10
72.37705369652019
 20
-32.44511527914192
 30
0.0
  0
VERTEX
  5
130
  8
LAYER_1
 10
72.33055313176087
 20
-32.39368982156765
 30
0.0
  0
VERTEX
  5
131
  8
LAYER_1
 10
72.28320755274197
 20
-32.34297484610652
 30
0.0
  0
VERTEX
  5
132
  8
LAYER_1
 10
72.2350452897403
 20
-32.29299094495174
 30
0.0
  0
VERTEX
  5
133
  8
LAYER_1
 10
72.18609467303261
 20
-32.2437587102965
 30
0.0
  0
VERTEX
  5
134
  8
LAYER_1
 10
72.13638403289566
 20
-32.19529873433405
 30
0.0
  0
VERTEX
  5
135
  8
LAYER_1
 10
72.08594169960624
 20
-32.14763160925757
 30
0.0
  0
VERTEX
  5
136
  8
LAYER_1
 10
72.03479600344109
 20
-32.1007779272603
 30
0.0
  0
VERTEX
  5
137
  8
LAYER_1
 10
71.98297527467696
 20
-32.05475828053542
 30
0.0
  0
VERTEX
  5
138
  8
LAYER_1
 10
71.93050784359065
 20
-32.00959326127616
 30
0.0
  0
VERTEX
  5
139
  8
LAYER_1
 10
71.87742204045891
 20
-31.96530346167572
 30
0.0
  0
VERTEX
  5
13A
  8
LAYER_1
 10
71.8237461955585
 20
-31.92190947392733
 30
0.0
  0
VERTEX
  5
13B
  8
LAYER_1
 10
71.76950863916616
 20
-31.8794318902242
 30
0.0
  0
VERTEX
  5
13C
  8
LAYER_1
 10
71.7147377015587
 20
-31.83789130275952
 30
0.0
  0
VERTEX
  5
13D
  8
LAYER_1
 10
71.65946171301286
 20
-31.79730830372653
 30
0.0
  0
VERTEX
  5
13E
  8
LAYER_1
 10
71.60370900380539
 20
-31.75770348531842
 30
0.0
  0
VERTEX
  5
13F
  8
LAYER_1
 10
71.54750790421309
 20
-31.71909743972842
 30
0.0
  0
VERTEX
  5
140
  8
LAYER_1
 10
71.4908867445127
 20
-31.68151075914973
 30
0.0
  0
VERTEX
  5
141
  8
LAYER_1
 10
71.43387385498096
 20
-31.64496403577556
 30
0.0
  0
VERTEX
  5
142
  8
LAYER_1
 10
71.37649756589468
 20
-31.60947786179913
 30
0.0
  0
VERTEX
  5
143
  8
LAYER_1
 10
71.3187862075306
 20
-31.57507282941365
 30
0.0
  0
VERTEX
  5
144
  8
LAYER_1
 10
71.26076811016549
 20
-31.54176953081233
 30
0.0
  0
VERTEX
  5
145
  8
LAYER_1
 10
71.20247160407611
 20
-31.50958855818838
 30
0.0
  0
VERTEX
  5
146
  8
LAYER_1
 10
71.14392501953922
 20
-31.47855050373502
 30
0.0
  0
VERTEX
  5
147
  8
LAYER_1
 10
71.08515668683161
 20
-31.44867595964545
 30
0.0
  0
VERTEX
  5
148
  8
LAYER_1
 10
71.02619493623001
 20
-31.4199855181129
 30
0.0
  0
VERTEX
  5
149
  8
LAYER_1
 10
70.9670680980112
 20
-31.39249977133056
 30
0.0
  0
VERTEX
  5
14A
  8
LAYER_1
 10
70.90780450245194
 20
-31.36623931149165
 30
0.0
  0
VERTEX
  5
14B
  8
LAYER_1
 10
70.84843247982899
 20
-31.34122473078938
 30
0.0
  0
VERTEX
  5
14C
  8
LAYER_1
 10
70.81871466158012
 20
-31.32919108017487
 30
0.0
  0
VERTEX
  5
14D
  8
LAYER_1
 10
70.78898036041912
 20
-31.31747662141698
 30
0.0
  0
VERTEX
  5
14E
  8
LAYER_1
 10
70.75923311763057
 20
-31.30608392853985
 30
0.0
  0
VERTEX
  5
14F
  8
LAYER_1
 10
70.72947647449908
 20
-31.29501557556764
 30
0.0
  0
VERTEX
  5
150
  8
LAYER_1
 10
37.26861384517305
 20
-19.03360478691412
 30
0.0
  0
VERTEX
  5
151
  8
LAYER_1
 10
37.21969273541803
 20
-19.01579920944424
 30
0.0
  0
VERTEX
  5
152
  8
LAYER_1
 10
37.17048639272406
 20
-18.998213700894
 30
0.0
  0
VERTEX
  5
153
  8
LAYER_1
 10
37.12100718531163
 20
-18.98097640229499
 30
0.0
  0
VERTEX
  5
154
  8
LAYER_1
 10
37.07126748140124
 20
-18.9642154546788
 30
0.0
  0
VERTEX
  5
155
  8
LAYER_1
 10
37.02127964921335
 20
-18.94805899907703
 30
0.0
  0
VERTEX
  5
156
  8
LAYER_1
 10
36.97105605696849
 20
-18.93263517652127
 30
0.0
  0
VERTEX
  5
157
  8
LAYER_1
 10
36.9206090728871
 20
-18.9180721280431
 30
0.0
  0
VERTEX
  5
158
  8
LAYER_1
 10
36.86995106518971
 20
-18.90449799467413
 30
0.0
  0
VERTEX
  5
159
  8
LAYER_1
 10
36.84454679255391
 20
-18.89812181522796
 30
0.0
  0
VERTEX
  5
15A
  8
LAYER_1
 10
36.81909440209678
 20
-18.89204091744593
 30
0.0
  0
VERTEX
  5
15B
  8
LAYER_1
 10
36.7935954398459
 20
-18.886271318957
 30
0.0
  0
VERTEX
  5
15C
  8
LAYER_1
 10
36.76805145182882
 20
-18.88082903739011
 30
0.0
  0
VERTEX
  5
15D
  8
LAYER_1
 10
36.7424639840731
 20
-18.87573009037421
 30
0.0
  0
VERTEX
  5
15E
  8
LAYER_1
 10
36.7168345826063
 20
-18.87099049553825
 30
0.0
  0
VERTEX
  5
15F
  8
LAYER_1
 10
36.69116479345598
 20
-18.86662627051118
 30
0.0
  0
VERTEX
  5
160
  8
LAYER_1
 10
36.6654561626497
 20
-18.86265343292195
 30
0.0
  0
VERTEX
  5
161
  8
LAYER_1
 10
36.63971023621504
 20
-18.85908800039951
 30
0.0
  0
VERTEX
  5
162
  8
LAYER_1
 10
36.61392856017953
 20
-18.8559459905728
 30
0.0
  0
VERTEX
  5
163
  8
LAYER_1
 10
36.58811268057076
 20
-18.85324342107078
 30
0.0
  0
VERTEX
  5
164
  8
LAYER_1
 10
36.56226414341627
 20
-18.85099630952239
 30
0.0
  0
VERTEX
  5
165
  8
LAYER_1
 10
36.53638449474364
 20
-18.84922067355658
 30
0.0
  0
VERTEX
  5
166
  8
LAYER_1
 10
36.51047528058042
 20
-18.8479325308023
 30
0.0
  0
VERTEX
  5
167
  8
LAYER_1
 10
36.48453804695416
 20
-18.84714789888851
 30
0.0
  0
VERTEX
  5
168
  8
LAYER_1
 10
36.45857433989244
 20
-18.84688279544415
 30
0.0
  0
VERTEX
  5
169
  8
LAYER_1
 10
3.51683571938031
 20
-18.84688279544417
 30
0.0
  0
VERTEX
  5
16A
  8
LAYER_1
 10
3.504988932014182
 20
-18.84710450125083
 30
0.0
  0
VERTEX
  5
16B
  8
LAYER_1
 10
3.49313574259734
 20
-18.84776417892893
 30
0.0
  0
VERTEX
  5
16C
  8
LAYER_1
 10
3.481282326159643
 20
-18.84885366886568
 30
0.0
  0
VERTEX
  5
16D
  8
LAYER_1
 10
3.469434857730952
 20
-18.8503648114483
 30
0.0
  0
VERTEX
  5
16E
  8
LAYER_1
 10
3.457599512341128
 20
-18.85228944706399
 30
0.0
  0
VERTEX
  5
16F
  8
LAYER_1
 10
3.445782465020031
 20
-18.85461941609997
 30
0.0
  0
VERTEX
  5
170
  8
LAYER_1
 10
3.433989890797522
 20
-18.85734655894345
 30
0.0
  0
VERTEX
  5
171
  8
LAYER_1
 10
3.422227964703461
 20
-18.86046271598163
 30
0.0
  0
VERTEX
  5
172
  8
LAYER_1
 10
3.41050286176771
 20
-18.86395972760173
 30
0.0
  0
VERTEX
  5
173
  8
LAYER_1
 10
3.398820757020127
 20
-18.86782943419096
 30
0.0
  0
VERTEX
  5
174
  8
LAYER_1
 10
3.387187825490574
 20
-18.87206367613652
 30
0.0
  0
VERTEX
  5
175
  8
LAYER_1
 10
3.375610242208912
 20
-18.87665429382563
 30
0.0
  0
VERTEX
  5
176
  8
LAYER_1
 10
3.364094182204999
 20
-18.8815931276455
 30
0.0
  0
VERTEX
  5
177
  8
LAYER_1
 10
3.352645820508699
 20
-18.88687201798334
 30
0.0
  0
VERTEX
  5
178
  8
LAYER_1
 10
3.341271332149869
 20
-18.89248280522635
 30
0.0
  0
VERTEX
  5
179
  8
LAYER_1
 10
3.329976892158373
 20
-18.89841732976175
 30
0.0
  0
VERTEX
  5
17A
  8
LAYER_1
 10
3.318768675564069
 20
-18.90466743197675
 30
0.0
  0
VERTEX
  5
17B
  8
LAYER_1
 10
3.307652857396818
 20
-18.91122495225855
 30
0.0
  0
VERTEX
  5
17C
  8
LAYER_1
 10
3.29663561268648
 20
-18.91808173099438
 30
0.0
  0
VERTEX
  5
17D
  8
LAYER_1
 10
3.285723116462918
 20
-18.92522960857143
 30
0.0
  0
VERTEX
  5
17E
  8
LAYER_1
 10
3.264237069595557
 20
-18.94036602179806
 30
0.0
  0
VERTEX
  5
17F
  8
LAYER_1
 10
3.243244117033619
 20
-18.95656891503613
 30
0.0
  0
VERTEX
  5
180
  8
LAYER_1
 10
3.222793659015988
 20
-18.97377301138332
 30
0.0
  0
VERTEX
  5
181
  8
LAYER_1
 10
3.202935095781547
 20
-18.99191303393729
 30
0.0
  0
VERTEX
  5
182
  8
LAYER_1
 10
3.183717827569182
 20
-19.01092370579576
 30
0.0
  0
VERTEX
  5
183
  8
LAYER_1
 10
3.165191254617775
 20
-19.03073975005638
 30
0.0
  0
VERTEX
  5
184
  8
LAYER_1
 10
3.147404777166211
 20
-19.05129588981685
 30
0.0
  0
VERTEX
  5
185
  8
LAYER_1
 10
3.130407795453373
 20
-19.07252684817484
 30
0.0
  0
VERTEX
  5
186
  8
LAYER_1
 10
3.114249709718147
 20
-19.09436734822803
 30
0.0
  0
VERTEX
  5
187
  8
LAYER_1
 10
3.098979920199414
 20
-19.11675211307412
 30
0.0
  0
VERTEX
  5
188
  8
LAYER_1
 10
3.08464782713606
 20
-19.13961586581078
 30
0.0
  0
VERTEX
  5
189
  8
LAYER_1
 10
3.07130283076697
 20
-19.16289332953567
 30
0.0
  0
VERTEX
  5
18A
  8
LAYER_1
 10
3.058994331331025
 20
-19.18651922734651
 30
0.0
  0
VERTEX
  5
18B
  8
LAYER_1
 10
3.047771729067112
 20
-19.21042828234095
 30
0.0
  0
VERTEX
  5
18C
  8
LAYER_1
 10
3.037684424214113
 20
-19.23455521761669
 30
0.0
  0
VERTEX
  5
18D
  8
LAYER_1
 10
3.028781817010913
 20
-19.25883475627141
 30
0.0
  0
VERTEX
  5
18E
  8
LAYER_1
 10
3.024790212602638
 20
-19.27101135283391
 30
0.0
  0
VERTEX
  5
18F
  8
LAYER_1
 10
3.021113307696394
 20
-19.28320162140278
 30
0.0
  0
VERTEX
  5
190
  8
LAYER_1
 10
3.017757277322042
 20
-19.29539740236524
 30
0.0
  0
VERTEX
  5
191
  8
LAYER_1
 10
3.014728296509443
 20
-19.30759053610848
 30
0.0
  0
VERTEX
  5
192
  8
LAYER_1
 10
3.012032540288456
 20
-19.31977286301974
 30
0.0
  0
VERTEX
  5
193
  8
LAYER_1
 10
3.009676183688942
 20
-19.33193622348622
 30
0.0
  0
VERTEX
  5
194
  8
LAYER_1
 10
3.007665401740761
 20
-19.34407245789511
 30
0.0
  0
VERTEX
  5
195
  8
LAYER_1
 10
3.006006369473775
 20
-19.35617340663364
 30
0.0
  0
VERTEX
  5
196
  8
LAYER_1
 10
3.004705261917843
 20
-19.36823091008902
 30
0.0
  0
VERTEX
  5
197
  8
LAYER_1
 10
3.003768254102827
 20
-19.38023680864846
 30
0.0
  0
VERTEX
  5
198
  8
LAYER_1
 10
3.003201521058586
 20
-19.39218294269916
 30
0.0
  0
VERTEX
  5
199
  8
LAYER_1
 10
3.003011237814981
 20
-19.40406115262833
 30
0.0
  0
VERTEX
  5
19A
  8
LAYER_1
 10
3.003011237814981
 20
-21.35337656944126
 30
0.0
  0
VERTEX
  5
19B
  8
LAYER_1
 10
3.00273054945512
 20
-21.37468246683524
 30
0.0
  0
VERTEX
  5
19C
  8
LAYER_1
 10
3.001852229750546
 20
-21.39689318640246
 30
0.0
  0
VERTEX
  5
19D
  8
LAYER_1
 10
3.000321896763771
 20
-21.41985452257271
 30
0.0
  0
VERTEX
  5
19E
  8
LAYER_1
 10
2.998085168557306
 20
-21.44341226977579
 30
0.0
  0
VERTEX
  5
19F
  8
LAYER_1
 10
2.995087663193665
 20
-21.46741222244147
 30
0.0
  0
VERTEX
  5
1A0
  8
LAYER_1
 10
2.991274998735359
 20
-21.49170017499956
 30
0.0
  0
VERTEX
  5
1A1
  8
LAYER_1
 10
2.9865927932449
 20
-21.51612192187983
 30
0.0
  0
VERTEX
  5
1A2
  8
LAYER_1
 10
2.980986664784799
 20
-21.54052325751209
 30
0.0
  0
VERTEX
  5
1A3
  8
LAYER_1
 10
2.97440223141757
 20
-21.56474997632612
 30
0.0
  0
VERTEX
  5
1A4
  8
LAYER_1
 10
2.966785111205725
 20
-21.58864787275171
 30
0.0
  0
VERTEX
  5
1A5
  8
LAYER_1
 10
2.962572299177606
 20
-21.60042532332815
 30
0.0
  0
VERTEX
  5
1A6
  8
LAYER_1
 10
2.958080922211775
 20
-21.61206274121866
 30
0.0
  0
VERTEX
  5
1A7
  8
LAYER_1
 10
2.953304182566046
 20
-21.62354085072695
 30
0.0
  0
VERTEX
  5
1A8
  8
LAYER_1
 10
2.948235282498233
 20
-21.63484037615674
 30
0.0
  0
VERTEX
  5
1A9
  8
LAYER_1
 10
2.942867424266149
 20
-21.64594204181177
 30
0.0
  0
VERTEX
  5
1AA
  8
LAYER_1
 10
2.93719381012761
 20
-21.65682657199576
 30
0.0
  0
VERTEX
  5
1AB
  8
LAYER_1
 10
2.931207642340428
 20
-21.66747469101242
 30
0.0
  0
VERTEX
  5
1AC
  8
LAYER_1
 10
2.924902123162418
 20
-21.67786712316549
 30
0.0
  0
VERTEX
  5
1AD
  8
LAYER_1
 10
2.918270454851394
 20
-21.68798459275869
 30
0.0
  0
VERTEX
  5
1AE
  8
LAYER_1
 10
2.911305839665171
 20
-21.69780782409574
 30
0.0
  0
VERTEX
  5
1AF
  8
LAYER_1
 10
2.904001479861561
 20
-21.70731754148037
 30
0.0
  0
VERTEX
  5
1B0
  8
LAYER_1
 10
2.89635057769838
 20
-21.71649446921629
 30
0.0
  0
VERTEX
  5
1B1
  8
LAYER_1
 10
2.888444960478813
 20
-21.72521849470492
 30
0.0
  0
VERTEX
  5
1B2
  8
LAYER_1
 10
2.880206708247457
 20
-21.7335987247251
 30
0.0
  0
VERTEX
  5
1B3
  8
LAYER_1
 10
2.871652696490759
 20
-21.74163954275726
 30
0.0
  0
VERTEX
  5
1B4
  8
LAYER_1
 10
2.862799800695164
 20
-21.74934533228183
 30
0.0
  0
VERTEX
  5
1B5
  8
LAYER_1
 10
2.853664896347119
 20
-21.75672047677925
 30
0.0
  0
VERTEX
  5
1B6
  8
LAYER_1
 10
2.844264858933068
 20
-21.76376935972995
 30
0.0
  0
VERTEX
  5
1B7
  8
LAYER_1
 10
2.834616563939458
 20
-21.77049636461435
 30
0.0
  0
VERTEX
  5
1B8
  8
LAYER_1
 10
2.824736886852735
 20
-21.7769058749129
 30
0.0
  0
VERTEX
  5
1B9
  8
LAYER_1
 10
2.814642703159344
 20
-21.78300227410601
 30
0.0
  0
VERTEX
  5
1BA
  8
LAYER_1
 10
2.804350888345733
 20
-21.78878994567414
 30
0.0
  0
VERTEX
  5
1BB
  8
LAYER_1
 10
2.793878317898345
 20
-21.7942732730977
 30
0.0
  0
VERTEX
  5
1BC
  8
LAYER_1
 10
2.783241867303627
 20
-21.79945663985714
 30
0.0
  0
VERTEX
  5
1BD
  8
LAYER_1
 10
2.772458412048026
 20
-21.80434442943287
 30
0.0
  0
VERTEX
  5
1BE
  8
LAYER_1
 10
2.761544827617987
 20
-21.80894102530534
 30
0.0
  0
VERTEX
  5
1BF
  8
LAYER_1
 10
2.739394773180378
 20
-21.81727816986222
 30
0.0
  0
VERTEX
  5
1C0
  8
LAYER_1
 10
2.716926707882367
 20
-21.82450314137122
 30
0.0
  0
VERTEX
  5
1C1
  8
LAYER_1
 10
2.694275635615521
 20
-21.8306510076758
 30
0.0
  0
VERTEX
  5
1C2
  8
LAYER_1
 10
2.671576560271407
 20
-21.83575683661942
 30
0.0
  0
VERTEX
  5
1C3
  8
LAYER_1
 10
2.648964485741593
 20
-21.83985569604555
 30
0.0
  0
VERTEX
  5
1C4
  8
LAYER_1
 10
2.626574415917645
 20
-21.84298265379762
 30
0.0
  0
VERTEX
  5
1C5
  8
LAYER_1
 10
2.60454135469113
 20
-21.84517277771911
 30
0.0
  0
VERTEX
  5
1C6
  8
LAYER_1
 10
2.583000305953615
 20
-21.84646113565346
 30
0.0
  0
VERTEX
  5
1C7
  8
LAYER_1
 10
2.562086273596667
 20
-21.84688279544415
 30
0.0
  0
VERTEX
  5
1C8
  8
LAYER_1
 10
1.762367128237518
 20
-21.84688279544415
 30
0.0
  0
VERTEX
  5
1C9
  8
LAYER_1
 10
1.751377147893838
 20
-21.84706386726848
 30
0.0
  0
VERTEX
  5
1CA
  8
LAYER_1
 10
1.740333342041208
 20
-21.84760306414078
 30
0.0
  0
VERTEX
  5
1CB
  8
LAYER_1
 10
1.729242971506184
 20
-21.84849435815995
 30
0.0
  0
VERTEX
  5
1CC
  8
LAYER_1
 10
1.718113297115321
 20
-21.84973172142489
 30
0.0
  0
VERTEX
  5
1CD
  8
LAYER_1
 10
1.706951579695176
 20
-21.85130912603453
 30
0.0
  0
VERTEX
  5
1CE
  8
LAYER_1
 10
1.695765080072302
 20
-21.85322054408778
 30
0.0
  0
VERTEX
  5
1CF
  8
LAYER_1
 10
1.684561059073257
 20
-21.85545994768356
 30
0.0
  0
VERTEX
  5
1D0
  8
LAYER_1
 10
1.673346777524597
 20
-21.85802130892077
 30
0.0
  0
VERTEX
  5
1D1
  8
LAYER_1
 10
1.65091647608465
 20
-21.86408579271516
 30
0.0
  0
VERTEX
  5
1D2
  8
LAYER_1
 10
1.628532262364908
 20
-21.87136577226225
 30
0.0
  0
VERTEX
  5
1D3
  8
LAYER_1
 10
1.606252222977817
 20
-21.87981302435336
 30
0.0
  0
VERTEX
  5
1D4
  8
LAYER_1
 10
1.584134444535821
 20
-21.8893793257798
 30
0.0
  0
VERTEX
  5
1D5
  8
LAYER_1
 10
1.562237013651366
 20
-21.90001645333288
 30
0.0
  0
VERTEX
  5
1D6
  8
LAYER_1
 10
1.540618016936898
 20
-21.9116761838039
 30
0.0
  0
VERTEX
  5
1D7
  8
LAYER_1
 10
1.519335541004862
 20
-21.92431029398418
 30
0.0
  0
VERTEX
  5
1D8
  8
LAYER_1
 10
1.498447672467704
 20
-21.93787056066501
 30
0.0
  0
VERTEX
  5
1D9
  8
LAYER_1
 10
1.478012497937869
 20
-21.95230876063772
 30
0.0
  0
VERTEX
  5
1DA
  8
LAYER_1
 10
1.458088104027803
 20
-21.9675766706936
 30
0.0
  0
VERTEX
  5
1DB
  8
LAYER_1
 10
1.438732577349951
 20
-21.98362606762398
 30
0.0
  0
VERTEX
  5
1DC
  8
LAYER_1
 10
1.42000400451676
 20
-22.00040872822015
 30
0.0
  0
VERTEX
  5
1DD
  8
LAYER_1
 10
1.401960472140673
 20
-22.01787642927343
 30
0.0
  0
VERTEX
  5
1DE
  8
LAYER_1
 10
1.384660066834138
 20
-22.03598094757512
 30
0.0
  0
VERTEX
  5
1DF
  8
LAYER_1
 10
1.368160875209599
 20
-22.05467405991653
 30
0.0
  0
VERTEX
  5
1E0
  8
LAYER_1
 10
1.352520983879502
 20
-22.07390754308898
 30
0.0
  0
VERTEX
  5
1E1
  8
LAYER_1
 10
1.337798479456292
 20
-22.09363317388376
 30
0.0
  0
VERTEX
  5
1E2
  8
LAYER_1
 10
1.324051448552416
 20
-22.1138027290922
 30
0.0
  0
VERTEX
  5
1E3
  8
LAYER_1
 10
1.311337977780318
 20
-22.13436798550559
 30
0.0
  0
VERTEX
  5
1E4
  8
LAYER_1
 10
1.299716153752444
 20
-22.15528071991525
 30
0.0
  0
VERTEX
  5
1E5
  8
LAYER_1
 10
1.289244063081239
 20
-22.17649270911248
 30
0.0
  0
VERTEX
  5
1E6
  8
LAYER_1
 10
1.284457319820777
 20
-22.18719585450372
 30
0.0
  0
VERTEX
  5
1E7
  8
LAYER_1
 10
1.27997979237915
 20
-22.1979557298886
 30
0.0
  0
VERTEX
  5
1E8
  8
LAYER_1
 10
1.275818741582913
 20
-22.20876630736602
 30
0.0
  0
VERTEX
  5
1E9
  8
LAYER_1
 10
1.271981428258621
 20
-22.21962155903491
 30
0.0
  0
VERTEX
  5
1EA
  8
LAYER_1
 10
1.268475113232831
 20
-22.23051545699417
 30
0.0
  0
VERTEX
  5
1EB
  8
LAYER_1
 10
1.265307057332099
 20
-22.24144197334271
 30
0.0
  0
VERTEX
  5
1EC
  8
LAYER_1
 10
1.262484521382979
 20
-22.25239508017946
 30
0.0
  0
VERTEX
  5
1ED
  8
LAYER_1
 10
1.260014766212028
 20
-22.26336874960333
 30
0.0
  0
VERTEX
  5
1EE
  8
LAYER_1
 10
1.257905052645801
 20
-22.27435695371323
 30
0.0
  0
VERTEX
  5
1EF
  8
LAYER_1
 10
1.256162641510854
 20
-22.28535366460807
 30
0.0
  0
VERTEX
  5
1F0
  8
LAYER_1
 10
1.254794793633743
 20
-22.29635285438677
 30
0.0
  0
VERTEX
  5
1F1
  8
LAYER_1
 10
1.253808769841024
 20
-22.30734849514824
 30
0.0
  0
VERTEX
  5
1F2
  8
LAYER_1
 10
1.253211830959251
 20
-22.31833455899139
 30
0.0
  0
SEQEND
  5
463
  8
LAYER_1
  0
POLYLINE
  5
71
  8
LAYER_1
 66
     1
 10
0.0
 20
0.0
 30
0.0
 70
     1
  0
VERTEX
  5
1F3
  8
LAYER_1
 10
2.875352328703075
 20
-20.59688279544415
 30
0.0
  0
VERTEX
  5
1F4
  8
LAYER_1
 10
33.37801123781498
 20
-20.59688279544415
 30
0.0
  0
VERTEX
  5
1F5
  8
LAYER_1
 10
33.37801123781498
 20
-19.84688279544415
 30
0.0
  0
VERTEX
  5
1F6
  8
LAYER_1
 10
2.875352328703075
 20
-19.84688279544415
 30
0.0
  0
SEQEND
  5
464
  8
LAYER_1
  0
POLYLINE
  5
72
  8
LAYER_1
 66
     1
 10
0.0
 20
0.0
 30
0.0
 70
     1
  0
VERTEX
  5
1F7
  8
LAYER_1
 10
38.75301123781498
 20
-44.03388279544414
 30
0.0
 42
0.4142135623730951
  0
VERTEX
  5
1F8
  8
LAYER_1
 10
38.62751123781498
 20
-44.15938279544415
 30
0.0
 42
0.4142135623730951
  0
VERTEX
  5
1F9
  8
LAYER_1
 10
38.75301123781498
 20
-44.28488279544415
 30
0.0
 42
0.4142135623730951
  0
VERTEX
  5
1FA
  8
LAYER_1
 10
38.87851123781498
 20
-44.15938279544415
 30
0.0
 42
0.4142135623730951
  0
SEQEND
  5
465
  8
LAYER_1
  0
POLYLINE
  5
73
  8
LAYER_1
 66
     1
 10
0.0
 20
0.0
 30
0.0
 70
     1
  0
VERTEX
  5
1FB
  8
LAYER_1
 10
34.65931123781498
 20
-34.19018279544414
 30
0.0
 42
0.4142135623730951
  0
VERTEX
  5
1FC
  8
LAYER_1
 10
34.53381123781498
 20
-34.31568279544415
 30
0.0
 42
0.4142135623730951
  0
VERTEX
  5
1FD
  8
LAYER_1
 10
34.65931123781498
 20
-34.44118279544415
 30
0.0
 42
0.4142135623730951
  0
VERTEX
  5
1FE
  8
LAYER_1
 10
34.78481123781498
 20
-34.31568279544415
 30
0.0
 42
0.4142135623730951
  0
SEQEND
  5
466
  8
LAYER_1
  0
POLYLINE
  5
74
  8
LAYER_1
 66
     1
 10
0.0
 20
0.0
 30
0.0
 70
     1
  0
VERTEX
  5
1FF
  8
LAYER_1
 10
7.003937881521928
 20
-12.28790111103587
 30
0.0
  0
VERTEX
  5
200
  8
LAYER_1
 10
19.50393788152193
 20
-12.28790111103587
 30
0.0
  0
VERTEX
  5
201
  8
LAYER_1
 10
19.50393788152193
 20
-10.78790111103587
 30
0.0
  0
VERTEX
  5
202
  8
LAYER_1
 10
7.003937881521928
 20
-10.78790111103587
 30
0.0
  0
SEQEND
  5
467
  8
LAYER_1
  0
POLYLINE
  5
75
  8
LAYER_1
 66
     1
 10
0.0
 20
0.0
 30
0.0
 70
     1
  0
VERTEX
  5
203
  8
LAYER_1
 10
22.92382738397901
 20
-3.975401111035872
 30
0.0
  0
VERTEX
  5
204
  8
LAYER_1
 10
25.03513788152193
 20
-3.975401111035872
 30
0.0
  0
VERTEX
  5
205
  8
LAYER_1
 10
25.03513788152193
 20
-16.53790111103587
 30
0.0
  0
VERTEX
  5
206
  8
LAYER_1
 10
1.472637881521928
 20
-16.53790111103587
 30
0.0
  0
VERTEX
  5
207
  8
LAYER_1
 10
1.472637881521928
 20
-3.975401111035872
 30
0.0
  0
VERTEX
  5
208
  8
LAYER_1
 10
3.59382873522331
 20
-3.975401111035872
 30
0.0
  0
VERTEX
  5
209
  8
LAYER_1
 10
3.597637881521928
 20
-3.975401111035872
 30
0.0
 42
0.4142135623730951
  0
VERTEX
  5
20A
  8
LAYER_1
 10
3.847637881521928
 20
-4.225401111035872
 30
0.0
 42
0.4142135623730951
  0
VERTEX
  5
20B
  8
LAYER_1
 10
4.097637881521928
 20
-3.975401111035872
 30
0.0
  0
VERTEX
  5
20C
  8
LAYER_1
 10
4.109049556713975
 20
-3.975401111035872
 30
0.0
  0
VERTEX
  5
20D
  8
LAYER_1
 10
22.39794682135406
 20
-3.975401111035872
 30
0.0
  0
VERTEX
  5
20E
  8
LAYER_1
 10
22.41013788152193
 20
-3.975401111035872
 30
0.0
 42
0.4142135623730951
  0
VERTEX
  5
20F
  8
LAYER_1
 10
22.66013788152193
 20
-4.225401111035872
 30
0.0
 42
0.4142135623730951
  0
VERTEX
  5
210
  8
LAYER_1
 10
22.91013788152193
 20
-3.975401111035872
 30
0.0
  0
SEQEND
  5
468
  8
LAYER_1
  0
POLYLINE
  5
76
  8
LAYER_1
 66
     1
 10
0.0
 20
0.0
 30
0.0
 70
     1
  0
VERTEX
  5
211
  8
LAYER_1
 10
59.58201781264281
 20
-25.70622531266395
 30
0.0
  0
VERTEX
  5
212
  8
LAYER_1
 10
59.58201781264282
 20
-2.893725312663953
 30
0.0
  0
VERTEX
  5
213
  8
LAYER_1
 10
58.58201781264282
 20
-2.893725312663953
 30
0.0
  0
VERTEX
  5
214
  8
LAYER_1
 10
58.58201781264281
 20
-25.70622531266395
 30
0.0
  0
SEQEND
  5
469
  8
LAYER_1
  0
POLYLINE
  5
77
  8
LAYER_1
 66
     1
 10
0.0
 20
0.0
 30
0.0
 70
     1
  0
VERTEX
  5
215
  8
LAYER_1
 10
58.76951781264281
 20
-25.83122531266395
 30
0.0
  0
VERTEX
  5
216
  8
LAYER_1
 10
58.76951781264282
 20
-2.761225312663946
 30
0.0
  0
VERTEX
  5
217
  8
LAYER_1
 10
58.51851781264282
 20
-2.761225312663946
 30
0.0
  0
VERTEX
  5
218
  8
LAYER_1
 10
58.51851781264282
 20
-25.83122531266395
 30
0.0
  0
SEQEND
  5
46A
  8
LAYER_1
  0
POLYLINE
  5
78
  8
LAYER_1
 66
     1
 10
0.0
 20
0.0
 30
0.0
 70
     1
  0
VERTEX
  5
219
  8
LAYER_1
 10
27.2880417638012
 20
-9.718313603208692
 30
0.0
  0
VERTEX
  5
21A
  8
LAYER_1
 10
50.8505417638012
 20
-9.718313603208692
 30
0.0
  0
VERTEX
  5
21B
  8
LAYER_1
 10
50.8505417638012
 20
-2.968313603208692
 30
0.0
  0
VERTEX
  5
21C
  8
LAYER_1
 10
27.2880417638012
 20
-2.968313603208692
 30
0.0
  0
SEQEND
  5
46B
  8
LAYER_1
  0
POLYLINE
  5
79
  8
LAYER_1
 66
     1
 10
0.0
 20
0.0
 30
0.0
 70
     1
  0
VERTEX
  5
21D
  8
LAYER_1
 10
75.63888318521637
 20
-48.35663545668396
 30
0.0
  0
VERTEX
  5
21E
  8
LAYER_1
 10
93.26388318521637
 20
-48.35663545668396
 30
0.0
  0
VERTEX
  5
21F
  8
LAYER_1
 10
93.26388318521637
 20
-43.60663545668396
 30
0.0
  0
VERTEX
  5
220
  8
LAYER_1
 10
75.63888318521637
 20
-43.60663545668396
 30
0.0
  0
SEQEND
  5
46C
  8
LAYER_1
  0
POLYLINE
  5
7A
  8
LAYER_1
 66
     1
 10
0.0
 20
0.0
 30
0.0
 70
     1
  0
VERTEX
  5
221
  8
LAYER_1
 10
75.44952814451506
 20
-42.4866291949432
 30
0.0
  0
VERTEX
  5
222
  8
LAYER_1
 10
93.07452814451506
 20
-42.4866291949432
 30
0.0
  0
VERTEX
  5
223
  8
LAYER_1
 10
93.07452814451506
 20
-37.7366291949432
 30
0.0
  0
VERTEX
  5
224
  8
LAYER_1
 10
75.44952814451506
 20
-37.7366291949432
 30
0.0
  0
SEQEND
  5
46D
  8
LAYER_1
  0
POLYLINE
  5
7B
  8
LAYER_1
 66
     1
 10
0.0
 20
0.0
 30
0.0
 70
     1
  0
VERTEX
  5
225
  8
LAYER_1
 10
75.00831806311243
 20
-36.19025317741033
 30
0.0
  0
VERTEX
  5
226
  8
LAYER_1
 10
92.75831806311243
 20
-36.19025317741033
 30
0.0
  0
VERTEX
  5
227
  8
LAYER_1
 10
92.75831806311243
 20
-34.56525317741033
 30
0.0
  0
VERTEX
  5
228
  8
LAYER_1
 10
75.00831806311243
 20
-34.56525317741033
 30
0.0
  0
SEQEND
  5
46E
  8
LAYER_1
  0
POLYLINE
  5
7C
  8
LAYER_1
 66
     1
 10
0.0
 20
0.0
 30
0.0
 70
     1
  0
VERTEX
  5
229
  8
LAYER_1
 10
53.57909138809676
 20
-23.15885837465515
 30
0.0
  0
VERTEX
  5
22A
  8
LAYER_1
 10
53.57909138809676
 20
-2.908858374655154
 30
0.0
  0
VERTEX
  5
22B
  8
LAYER_1
 10
52.07909138809676
 20
-2.908858374655154
 30
0.0
  0
VERTEX
  5
22C
  8
LAYER_1
 10
52.07909138809676
 20
-23.15885837465515
 30
0.0
  0
SEQEND
  5
46F
  8
LAYER_1
  0
POLYLINE
  5
7D
  8
LAYER_1
 66
     1
 10
0.0
 20
0.0
 30
0.0
 70
     1
  0
VERTEX
  5
22D
  8
LAYER_1
 10
56.54565369241735
 20
-22.65700333395384
 30
0.0
  0
VERTEX
  5
22E
  8
LAYER_1
 10
56.54565369241737
 20
-3.032003333953838
 30
0.0
  0
VERTEX
  5
22F
  8
LAYER_1
 10
55.04565369241737
 20
-3.032003333953838
 30
0.0
  0
VERTEX
  5
230
  8
LAYER_1
 10
55.04565369241735
 20
-22.65700333395384
 30
0.0
  0
SEQEND
  5
470
  8
LAYER_1
  0
POLYLINE
  5
7E
  8
LAYER_1
 66
     1
 10
0.0
 20
0.0
 30
0.0
 70
     1
  0
VERTEX
  5
231
  8
LAYER_1
 10
92.25337128790892
 20
-31.40933583238841
 30
0.0
  0
VERTEX
  5
232
  8
LAYER_1
 10
74.50337128790892
 20
-31.40933583238841
 30
0.0
  0
VERTEX
  5
233
  8
LAYER_1
 10
74.50337128790892
 20
-33.03433583238839
 30
0.0
  0
VERTEX
  5
234
  8
LAYER_1
 10
92.25337128790892
 20
-33.03433583238841
 30
0.0
  0
SEQEND
  5
471
  8
LAYER_1
  0
POLYLINE
  5
7F
  8
LAYER_1
 66
     1
 10
0.0
 20
0.0
 30
0.0
 70
     1
  0
VERTEX
  5
235
  8
LAYER_1
 10
50.66118672309988
 20
-11.57747531266392
 30
0.0
  0
VERTEX
  5
236
  8
LAYER_1
 10
27.0986867230999
 20
-11.57747531266392
 30
0.0
  0
VERTEX
  5
237
  8
LAYER_1
 10
27.0986867230999
 20
-17.01497531266392
 30
0.0
  0
VERTEX
  5
238
  8
LAYER_1
 10
50.66118672309988
 20
-17.01497531266392
 30
0.0
  0
SEQEND
  5
472
  8
LAYER_1
  0
POLYLINE
  5
80
  8
LAYER_1
 66
     1
 10
0.0
 20
0.0
 30
0.0
 70
     1
  0
VERTEX
  5
239
  8
LAYER_1
 10
45.12988672309988
 20
-14.07747531266392
 30
0.0
  0
VERTEX
  5
23A
  8
LAYER_1
 10
32.62988672309988
 20
-14.07747531266392
 30
0.0
  0
VERTEX
  5
23B
  8
LAYER_1
 10
32.62988672309988
 20
-15.57747531266392
 30
0.0
  0
VERTEX
  5
23C
  8
LAYER_1
 10
45.12988672309988
 20
-15.57747531266392
 30
0.0
  0
SEQEND
  5
473
  8
LAYER_1
  0
POLYLINE
  5
81
  8
LAYER_1
 66
     1
 10
0.0
 20
0.0
 30
0.0
 70
     1
  0
VERTEX
  5
23D
  8
LAYER_1
 10
63.42368123130154
 20
-26.51919369940403
 30
0.0
  0
VERTEX
  5
23E
  8
LAYER_1
 10
63.4212422974406
 20
-2.956693825629998
 30
0.0
  0
VERTEX
  5
23F
  8
LAYER_1
 10
61.29624230882436
 20
-2.956913782529952
 30
0.0
  0
VERTEX
  5
240
  8
LAYER_1
 10
61.29868124268531
 20
-26.51941365630398
 30
0.0
  0
SEQEND
  5
474
  8
LAYER_1
  0
POLYLINE
  5
82
  8
LAYER_1
 66
     1
 10
0.0
 20
0.0
 30
0.0
 70
     1
  0
VERTEX
  5
241
  8
LAYER_1
 10
94.65546106538778
 20
-28.26490507689438
 30
0.0
  0
VERTEX
  5
242
  8
LAYER_1
 10
71.09297226393628
 20
-28.24193267015228
 30
0.0
  0
VERTEX
  5
243
  8
LAYER_1
 10
71.09138796002304
 20
-29.8669318978386
 30
0.0
  0
VERTEX
  5
244
  8
LAYER_1
 10
94.65387676147452
 20
-29.8899043045807
 30
0.0
  0
SEQEND
  5
475
  8
LAYER_1
  0
POLYLINE
  5
83
  8
LAYER_1
 66
     1
 10
0.0
 20
0.0
 30
0.0
 70
     1
  0
VERTEX
  5
245
  8
LAYER_1
 10
95.17550227569848
 20
-26.75659671216298
 30
0.0
  0
VERTEX
  5
246
  8
LAYER_1
 10
95.1755022756985
 20
-2.881596712162988
 30
0.0
  0
VERTEX
  5
247
  8
LAYER_1
 10
65.1755022756985
 20
-2.881596712162988
 30
0.0
  0
VERTEX
  5
248
  8
LAYER_1
 10
65.1755022756985
 20
-26.75659671216295
 30
0.0
  0
SEQEND
  5
476
  8
LAYER_1
  0
POLYLINE
  5
84
  8
LAYER_1
 66
     1
 10
0.0
 20
0.0
 30
0.0
 70
     1
  0
VERTEX
  5
249
  8
LAYER_1
 10
79.9317522756985
 20
-20.88159671216298
 30
0.0
  0
VERTEX
  5
24A
  8
LAYER_1
 10
79.9317522756985
 20
-8.694096712162988
 30
0.0
  0
VERTEX
  5
24B
  8
LAYER_1
 10
69.4317522756985
 20
-8.694096712162988
 30
0.0
  0
VERTEX
  5
24C
  8
LAYER_1
 10
69.4317522756985
 20
-20.88159671216297
 30
0.0
  0
SEQEND
  5
477
  8
LAYER_1
  0
POLYLINE
  5
85
  8
LAYER_1
 66
     1
 10
0.0
 20
0.0
 30
0.0
 70
     1
  0
VERTEX
  5
24D
  8
LAYER_1
 10
74.61875227569851
 20
-21.25659671216298
 30
0.0
 42
0.4142135623730951
  0
VERTEX
  5
24E
  8
LAYER_1
 10
74.7442522756985
 20
-21.38209671216298
 30
0.0
 42
0.4142135623730951
  0
VERTEX
  5
24F
  8
LAYER_1
 10
74.86975227569852
 20
-21.25659671216298
 30
0.0
 42
0.4142135623730951
  0
VERTEX
  5
250
  8
LAYER_1
 10
74.7442522756985
 20
-21.13109671216298
 30
0.0
 42
0.4142135623730951
  0
SEQEND
  5
478
  8
LAYER_1
  0
POLYLINE
  5
86
  8
LAYER_1
 66
     1
 10
0.0
 20
0.0
 30
0.0
 70
     1
  0
VERTEX
  5
251
  8
LAYER_1
 10
74.61875227569851
 20
-8.350396712162976
 30
0.0
 42
0.4142135623730951
  0
VERTEX
  5
252
  8
LAYER_1
 10
74.7442522756985
 20
-8.475896712162992
 30
0.0
 42
0.4142135623730951
  0
VERTEX
  5
253
  8
LAYER_1
 10
74.86975227569852
 20
-8.350396712162976
 30
0.0
 42
0.4142135623730951
  0
VERTEX
  5
254
  8
LAYER_1
 10
74.7442522756985
 20
-8.224896712162987
 30
0.0
 42
0.4142135623730951
  0
SEQEND
  5
479
  8
LAYER_1
  0
POLYLINE
  5
87
  8
LAYER_1
 66
     1
 10
0.0
 20
0.0
 30
0.0
 70
     1
  0
VERTEX
  5
255
  8
LAYER_1
 10
69.05625227569851
 20
-14.78789671216298
 30
0.0
 42
0.4142135623730951
  0
VERTEX
  5
256
  8
LAYER_1
 10
69.1817522756985
 20
-14.91339671216299
 30
0.0
 42
0.4142135623730951
  0
VERTEX
  5
257
  8
LAYER_1
 10
69.30725227569852
 20
-14.78789671216298
 30
0.0
 42
0.4142135623730951
  0
VERTEX
  5
258
  8
LAYER_1
 10
69.1817522756985
 20
-14.66239671216298
 30
0.0
 42
0.4142135623730951
  0
SEQEND
  5
47A
  8
LAYER_1
  0
POLYLINE
  5
88
  8
LAYER_1
 66
     1
 10
0.0
 20
0.0
 30
0.0
 70
     1
  0
VERTEX
  5
259
  8
LAYER_1
 10
80.11875227569851
 20
-14.78789671216298
 30
0.0
 42
0.4142135623730951
  0
VERTEX
  5
25A
  8
LAYER_1
 10
80.2442522756985
 20
-14.91339671216299
 30
0.0
 42
0.4142135623730951
  0
VERTEX
  5
25B
  8
LAYER_1
 10
80.36975227569852
 20
-14.78789671216298
 30
0.0
 42
0.4142135623730951
  0
VERTEX
  5
25C
  8
LAYER_1
 10
80.2442522756985
 20
-14.66239671216298
 30
0.0
 42
0.4142135623730951
  0
SEQEND
  5
47B
  8
LAYER_1
  0
POLYLINE
  5
89
  8
LAYER_1
 66
     1
 10
0.0
 20
0.0
 30
0.0
 70
     1
  0
VERTEX
  5
25D
  8
LAYER_1
 10
65.8005022756985
 20
-24.50609671216298
 30
0.0
 42
0.4142135623730951
  0
VERTEX
  5
25E
  8
LAYER_1
 10
65.67500227569852
 20
-24.63159671216298
 30
0.0
 42
0.4142135623730951
  0
VERTEX
  5
25F
  8
LAYER_1
 10
65.8005022756985
 20
-24.75709671216298
 30
0.0
 42
0.4142135623730951
  0
VERTEX
  5
260
  8
LAYER_1
 10
65.92600227569852
 20
-24.63159671216298
 30
0.0
 42
0.4142135623730951
  0
SEQEND
  5
47C
  8
LAYER_1
  0
POLYLINE
  5
8A
  8
LAYER_1
 66
     1
 10
0.0
 20
0.0
 30
0.0
 70
     1
  0
VERTEX
  5
261
  8
LAYER_1
 10
65.8005022756985
 20
-4.881096712162986
 30
0.0
 42
0.4142135623730951
  0
VERTEX
  5
262
  8
LAYER_1
 10
65.67500227569852
 20
-5.006596712162988
 30
0.0
 42
0.4142135623730951
  0
VERTEX
  5
263
  8
LAYER_1
 10
65.8005022756985
 20
-5.132096712162976
 30
0.0
 42
0.4142135623730951
  0
VERTEX
  5
264
  8
LAYER_1
 10
65.92600227569852
 20
-5.006596712162988
 30
0.0
 42
0.4142135623730951
  0
SEQEND
  5
47D
  8
LAYER_1
  0
POLYLINE
  5
8B
  8
LAYER_1
 66
     1
 10
0.0
 20
0.0
 30
0.0
 70
     1
  0
VERTEX
  5
265
  8
LAYER_1
 10
0.7942215873512737
 20
20.66956608606505
 30
0.0
  0
VERTEX
  5
266
  8
LAYER_1
 10
0.7942215873512737
 20
47.18714386349406
 30
0.0
  0
VERTEX
  5
267
  8
LAYER_1
 10
72.45156241458858
 20
47.18714386349404
 30
0.0
  0
VERTEX
  5
268
  8
LAYER_1
 10
72.46426268273106
 20
47.18679995184542
 30
0.0
  0
VERTEX
  5
269
  8
LAYER_1
 10
72.47666488436664
 20
47.18577847505535
 30
0.0
  0
VERTEX
  5
26A
  8
LAYER_1
 10
72.48877215755434
 20
47.18409482035751
 30
0.0
  0
VERTEX
  5
26B
  8
LAYER_1
 10
72.5005876403531
 20
47.18176437498555
 30
0.0
  0
VERTEX
  5
26C
  8
LAYER_1
 10
72.51211447082193
 20
47.17880252617318
 30
0.0
  0
VERTEX
  5
26D
  8
LAYER_1
 10
72.52335578701981
 20
47.17522466115405
 30
0.0
  0
VERTEX
  5
26E
  8
LAYER_1
 10
72.53431472700574
 20
47.17104616716185
 30
0.0
  0
VERTEX
  5
26F
  8
LAYER_1
 10
72.54499442883868
 20
47.16628243143027
 30
0.0
  0
VERTEX
  5
270
  8
LAYER_1
 10
72.55539803057763
 20
47.16094884119295
 30
0.0
  0
VERTEX
  5
271
  8
LAYER_1
 10
72.56552867028157
 20
47.1550607836836
 30
0.0
  0
VERTEX
  5
272
  8
LAYER_1
 10
72.57538948600947
 20
47.14863364613586
 30
0.0
  0
VERTEX
  5
273
  8
LAYER_1
 10
72.58498361582032
 20
47.14168281578344
 30
0.0
  0
VERTEX
  5
274
  8
LAYER_1
 10
72.59431419777312
 20
47.13422367986
 30
0.0
  0
VERTEX
  5
275
  8
LAYER_1
 10
72.60338436992686
 20
47.12627162559922
 30
0.0
  0
VERTEX
  5
276
  8
LAYER_1
 10
72.61219727034049
 20
47.11784204023478
 30
0.0
  0
VERTEX
  5
277
  8
LAYER_1
 10
72.62075603707302
 20
47.10895031100034
 30
0.0
  0
VERTEX
  5
278
  8
LAYER_1
 10
72.62906380818345
 20
47.09961182512959
 30
0.0
  0
VERTEX
  5
279
  8
LAYER_1
 10
72.63712372173072
 20
47.08984196985621
 30
0.0
  0
VERTEX
  5
27A
  8
LAYER_1
 10
72.64493891577382
 20
47.07965613241386
 30
0.0
  0
VERTEX
  5
27B
  8
LAYER_1
 10
72.65251252837177
 20
47.06906970003624
 30
0.0
  0
VERTEX
  5
27C
  8
LAYER_1
 10
72.65984769758356
 20
47.058098059957
 30
0.0
  0
VERTEX
  5
27D
  8
LAYER_1
 10
72.66694756146813
 20
47.04675659940982
 30
0.0
  0
VERTEX
  5
27E
  8
LAYER_1
 10
72.67381525808449
 20
47.03506070562838
 30
0.0
  0
VERTEX
  5
27F
  8
LAYER_1
 10
72.68045392549163
 20
47.02302576584637
 30
0.0
  0
VERTEX
  5
280
  8
LAYER_1
 10
72.68686670174853
 20
47.01066716729745
 30
0.0
  0
VERTEX
  5
281
  8
LAYER_1
 10
72.69305672491414
 20
46.9980002972153
 30
0.0
  0
VERTEX
  5
282
  8
LAYER_1
 10
72.69902713304751
 20
46.9850405428336
 30
0.0
  0
VERTEX
  5
283
  8
LAYER_1
 10
72.70478106420757
 20
46.97180329138602
 30
0.0
  0
VERTEX
  5
284
  8
LAYER_1
 10
72.71565204784375
 20
46.94455784622793
 30
0.0
  0
VERTEX
  5
285
  8
LAYER_1
 10
72.7256947802946
 20
46.91638705961044
 30
0.0
  0
VERTEX
  5
286
  8
LAYER_1
 10
72.73493436603198
 20
46.88741402940296
 30
0.0
  0
VERTEX
  5
287
  8
LAYER_1
 10
72.74339590952775
 20
46.8577618534749
 30
0.0
  0
VERTEX
  5
288
  8
LAYER_1
 10
72.75110451525381
 20
46.82755362969566
 30
0.0
  0
VERTEX
  5
289
  8
LAYER_1
 10
72.75808528768201
 20
46.79691245593465
 30
0.0
  0
VERTEX
  5
28A
  8
LAYER_1
 10
72.76436333128424
 20
46.7659614300613
 30
0.0
  0
VERTEX
  5
28B
  8
LAYER_1
 10
72.76996375053238
 20
46.73482364994497
 30
0.0
  0
VERTEX
  5
28C
  8
LAYER_1
 10
72.77491164989829
 20
46.70362221345511
 30
0.0
  0
VERTEX
  5
28D
  8
LAYER_1
 10
72.77923213385387
 20
46.6724802184611
 30
0.0
  0
VERTEX
  5
28E
  8
LAYER_1
 10
72.78295030687097
 20
46.64152076283236
 30
0.0
  0
VERTEX
  5
28F
  8
LAYER_1
 10
72.78609127342149
 20
46.61086694443831
 30
0.0
  0
VERTEX
  5
290
  8
LAYER_1
 10
72.7886801379773
 20
46.58064186114835
 30
0.0
  0
VERTEX
  5
291
  8
LAYER_1
 10
72.79074200501026
 20
46.55096861083187
 30
0.0
  0
VERTEX
  5
292
  8
LAYER_1
 10
72.79230197899227
 20
46.5219702913583
 30
0.0
  0
VERTEX
  5
293
  8
LAYER_1
 10
72.79338516439518
 20
46.49377000059704
 30
0.0
  0
VERTEX
  5
294
  8
LAYER_1
 10
72.79401666569089
 20
46.46649083641748
 30
0.0
  0
VERTEX
  5
295
  8
LAYER_1
 10
72.79422158735127
 20
46.44025589668907
 30
0.0
  0
VERTEX
  5
296
  8
LAYER_1
 10
72.79422158735127
 20
32.80955050249821
 30
0.0
  0
VERTEX
  5
297
  8
LAYER_1
 10
72.79399260582208
 20
32.77788574883745
 30
0.0
  0
VERTEX
  5
298
  8
LAYER_1
 10
72.79330802209093
 20
32.7462210080385
 30
0.0
  0
VERTEX
  5
299
  8
LAYER_1
 10
72.7921713774424
 20
32.71455885412554
 30
0.0
  0
VERTEX
  5
29A
  8
LAYER_1
 10
72.79058621316108
 20
32.68290186112272
 30
0.0
  0
VERTEX
  5
29B
  8
LAYER_1
 10
72.78855607053157
 20
32.65125260305417
 30
0.0
  0
VERTEX
  5
29C
  8
LAYER_1
 10
72.78608449083848
 20
32.61961365394408
 30
0.0
  0
VERTEX
  5
29D
  8
LAYER_1
 10
72.78317501536637
 20
32.58798758781656
 30
0.0
  0
VERTEX
  5
29E
  8
LAYER_1
 10
72.77983118539987
 20
32.55637697869578
 30
0.0
  0
VERTEX
  5
29F
  8
LAYER_1
 10
72.77605654222357
 20
32.5247844006059
 30
0.0
  0
VERTEX
  5
2A0
  8
LAYER_1
 10
72.77185462712205
 20
32.49321242757107
 30
0.0
  0
VERTEX
  5
2A1
  8
LAYER_1
 10
72.76722898137992
 20
32.46166363361542
 30
0.0
  0
VERTEX
  5
2A2
  8
LAYER_1
 10
72.76218314628176
 20
32.43014059276311
 30
0.0
  0
VERTEX
  5
2A3
  8
LAYER_1
 10
72.75672066311218
 20
32.3986458790383
 30
0.0
  0
VERTEX
  5
2A4
  8
LAYER_1
 10
72.75084507315577
 20
32.36718206646515
 30
0.0
  0
VERTEX
  5
2A5
  8
LAYER_1
 10
72.74455991769716
 20
32.33575172906778
 30
0.0
  0
VERTEX
  5
2A6
  8
LAYER_1
 10
72.73786873802088
 20
32.30435744087038
 30
0.0
  0
VERTEX
  5
2A7
  8
LAYER_1
 10
72.73077507541157
 20
32.27300177589707
 30
0.0
  0
VERTEX
  5
2A8
  8
LAYER_1
 10
72.72328247115381
 20
32.24168730817202
 30
0.0
  0
VERTEX
  5
2A9
  8
LAYER_1
 10
72.71539446653219
 20
32.21041661171937
 30
0.0
  0
VERTEX
  5
2AA
  8
LAYER_1
 10
72.70711460283133
 20
32.17919226056329
 30
0.0
  0
VERTEX
  5
2AB
  8
LAYER_1
 10
72.6984464213358
 20
32.14801682872791
 30
0.0
  0
VERTEX
  5
2AC
  8
LAYER_1
 10
72.6893934633302
 20
32.11689289023739
 30
0.0
  0
VERTEX
  5
2AD
  8
LAYER_1
 10
72.67995927009915
 20
32.08582301911589
 30
0.0
  0
VERTEX
  5
2AE
  8
LAYER_1
 10
72.6701473829272
 20
32.05480978938755
 30
0.0
  0
VERTEX
  5
2AF
  8
LAYER_1
 10
72.65996134309898
 20
32.02385577507651
 30
0.0
  0
VERTEX
  5
2B0
  8
LAYER_1
 10
72.64940469189908
 20
31.99296355020696
 30
0.0
  0
VERTEX
  5
2B1
  8
LAYER_1
 10
72.63848097061211
 20
31.96213568880302
 30
0.0
  0
VERTEX
  5
2B2
  8
LAYER_1
 10
72.62719372052263
 20
31.93137476488884
 30
0.0
  0
VERTEX
  5
2B3
  8
LAYER_1
 10
72.61554648291525
 20
31.90068335248859
 30
0.0
  0
VERTEX
  5
2B4
  8
LAYER_1
 10
72.60354279907459
 20
31.87006402562641
 30
0.0
  0
VERTEX
  5
2B5
  8
LAYER_1
 10
72.5911862102852
 20
31.83951935832645
 30
0.0
  0
VERTEX
  5
2B6
  8
LAYER_1
 10
72.57848025783171
 20
31.80905192461287
 30
0.0
  0
VERTEX
  5
2B7
  8
LAYER_1
 10
72.5654284829987
 20
31.77866429850981
 30
0.0
  0
VERTEX
  5
2B8
  8
LAYER_1
 10
72.55203442707078
 20
31.74835905404143
 30
0.0
  0
VERTEX
  5
2B9
  8
LAYER_1
 10
72.53830163133253
 20
31.71813876523188
 30
0.0
  0
VERTEX
  5
2BA
  8
LAYER_1
 10
72.52423363706856
 20
31.68800600610532
 30
0.0
  0
VERTEX
  5
2BB
  8
LAYER_1
 10
72.50983398556346
 20
31.65796335068589
 30
0.0
  0
VERTEX
  5
2BC
  8
LAYER_1
 10
72.49510621810182
 20
31.62801337299774
 30
0.0
  0
VERTEX
  5
2BD
  8
LAYER_1
 10
72.48005387596825
 20
31.59815864706503
 30
0.0
  0
VERTEX
  5
2BE
  8
LAYER_1
 10
72.46468050044732
 20
31.5684017469119
 30
0.0
  0
VERTEX
  5
2BF
  8
LAYER_1
 10
72.44898963282364
 20
31.53874524656252
 30
0.0
  0
VERTEX
  5
2C0
  8
LAYER_1
 10
72.4329848143818
 20
31.50919172004102
 30
0.0
  0
VERTEX
  5
2C1
  8
LAYER_1
 10
72.41666958640641
 20
31.47974374137156
 30
0.0
  0
VERTEX
  5
2C2
  8
LAYER_1
 10
72.40004749018205
 20
31.4504038845783
 30
0.0
  0
VERTEX
  5
2C3
  8
LAYER_1
 10
72.38312206699332
 20
31.42117472368538
 30
0.0
  0
VERTEX
  5
2C4
  8
LAYER_1
 10
72.36589685812483
 20
31.39205883271696
 30
0.0
  0
VERTEX
  5
2C5
  8
LAYER_1
 10
72.34837540486114
 20
31.36305878569719
 30
0.0
  0
VERTEX
  5
2C6
  8
LAYER_1
 10
72.33056124848689
 20
31.33417715665021
 30
0.0
  0
VERTEX
  5
2C7
  8
LAYER_1
 10
72.31245793028664
 20
31.30541651960019
 30
0.0
  0
VERTEX
  5
2C8
  8
LAYER_1
 10
72.294068991545
 20
31.27677944857126
 30
0.0
  0
VERTEX
  5
2C9
  8
LAYER_1
 10
72.27539797354657
 20
31.24826851758759
 30
0.0
  0
VERTEX
  5
2CA
  8
LAYER_1
 10
72.25644841757594
 20
31.21988630067333
 30
0.0
  0
VERTEX
  5
2CB
  8
LAYER_1
 10
72.21772785685646
 20
31.16351830514963
 30
0.0
  0
VERTEX
  5
2CC
  8
LAYER_1
 10
72.1779356396633
 20
31.10769605419336
 30
0.0
  0
VERTEX
  5
2CD
  8
LAYER_1
 10
72.13710009627327
 20
31.05244013999774
 30
0.0
  0
VERTEX
  5
2CE
  8
LAYER_1
 10
72.09524955696311
 20
30.99777115475599
 30
0.0
  0
VERTEX
  5
2CF
  8
LAYER_1
 10
72.05241235200958
 20
30.9437096906613
 30
0.0
  0
VERTEX
  5
2D0
  8
LAYER_1
 10
72.00861681168946
 20
30.89027633990691
 30
0.0
  0
VERTEX
  5
2D1
  8
LAYER_1
 10
71.96389126627952
 20
30.83749169468602
 30
0.0
  0
VERTEX
  5
2D2
  8
LAYER_1
 10
71.91826404605646
 20
30.78537634719183
 30
0.0
  0
VERTEX
  5
2D3
  8
LAYER_1
 10
71.87176348129714
 20
30.73395088961756
 30
0.0
  0
VERTEX
  5
2D4
  8
LAYER_1
 10
71.82441790227824
 20
30.68323591415643
 30
0.0
  0
VERTEX
  5
2D5
  8
LAYER_1
 10
71.77625563927657
 20
30.63325201300165
 30
0.0
  0
VERTEX
  5
2D6
  8
LAYER_1
 10
71.72730502256888
 20
30.58401977834642
 30
0.0
  0
VERTEX
  5
2D7
  8
LAYER_1
 10
71.67759438243193
 20
30.53555980238396
 30
0.0
  0
VERTEX
  5
2D8
  8
LAYER_1
 10
71.62715204914251
 20
30.48789267730749
 30
0.0
  0
VERTEX
  5
2D9
  8
LAYER_1
 10
71.57600635297736
 20
30.44103899531021
 30
0.0
  0
VERTEX
  5
2DA
  8
LAYER_1
 10
71.52418562421323
 20
30.39501934858533
 30
0.0
  0
VERTEX
  5
2DB
  8
LAYER_1
 10
71.47171819312692
 20
30.34985432932607
 30
0.0
  0
VERTEX
  5
2DC
  8
LAYER_1
 10
71.41863238999518
 20
30.30556452972564
 30
0.0
  0
VERTEX
  5
2DD
  8
LAYER_1
 10
71.36495654509477
 20
30.26217054197725
 30
0.0
  0
VERTEX
  5
2DE
  8
LAYER_1
 10
71.31071898870243
 20
30.21969295827411
 30
0.0
  0
VERTEX
  5
2DF
  8
LAYER_1
 10
71.25594805109498
 20
30.17815237080944
 30
0.0
  0
VERTEX
  5
2E0
  8
LAYER_1
 10
71.20067206254913
 20
30.13756937177645
 30
0.0
  0
VERTEX
  5
2E1
  8
LAYER_1
 10
71.14491935334166
 20
30.09796455336834
 30
0.0
  0
VERTEX
  5
2E2
  8
LAYER_1
 10
71.08871825374936
 20
30.05935850777834
 30
0.0
  0
VERTEX
  5
2E3
  8
LAYER_1
 10
71.03209709404896
 20
30.02177182719965
 30
0.0
  0
VERTEX
  5
2E4
  8
LAYER_1
 10
70.97508420451723
 20
29.98522510382548
 30
0.0
  0
VERTEX
  5
2E5
  8
LAYER_1
 10
70.91770791543095
 20
29.94973892984905
 30
0.0
  0
VERTEX
  5
2E6
  8
LAYER_1
 10
70.85999655706686
 20
29.91533389746357
 30
0.0
  0
VERTEX
  5
2E7
  8
LAYER_1
 10
70.80197845970176
 20
29.88203059886225
 30
0.0
  0
VERTEX
  5
2E8
  8
LAYER_1
 10
70.74368195361238
 20
29.8498496262383
 30
0.0
  0
VERTEX
  5
2E9
  8
LAYER_1
 10
70.6851353690755
 20
29.81881157178494
 30
0.0
  0
VERTEX
  5
2EA
  8
LAYER_1
 10
70.62636703636788
 20
29.78893702769537
 30
0.0
  0
VERTEX
  5
2EB
  8
LAYER_1
 10
70.56740528576628
 20
29.76024658616281
 30
0.0
  0
VERTEX
  5
2EC
  8
LAYER_1
 10
70.50827844754747
 20
29.73276083938047
 30
0.0
  0
VERTEX
  5
2ED
  8
LAYER_1
 10
70.44901485198821
 20
29.70650037954156
 30
0.0
  0
VERTEX
  5
2EE
  8
LAYER_1
 10
70.38964282936526
 20
29.6814857988393
 30
0.0
  0
VERTEX
  5
2EF
  8
LAYER_1
 10
70.35992501111639
 20
29.66945214822479
 30
0.0
  0
VERTEX
  5
2F0
  8
LAYER_1
 10
70.33019070995539
 20
29.65773768946689
 30
0.0
  0
VERTEX
  5
2F1
  8
LAYER_1
 10
70.30044346716684
 20
29.64634499658976
 30
0.0
  0
VERTEX
  5
2F2
  8
LAYER_1
 10
70.27068682403535
 20
29.63527664361755
 30
0.0
  0
VERTEX
  5
2F3
  8
LAYER_1
 10
36.80982419470934
 20
17.37386585496403
 30
0.0
  0
VERTEX
  5
2F4
  8
LAYER_1
 10
36.76090308495431
 20
17.35606027749415
 30
0.0
  0
VERTEX
  5
2F5
  8
LAYER_1
 10
36.71169674226034
 20
17.33847476894391
 30
0.0
  0
VERTEX
  5
2F6
  8
LAYER_1
 10
36.66221753484792
 20
17.3212374703449
 30
0.0
  0
VERTEX
  5
2F7
  8
LAYER_1
 10
36.61247783093752
 20
17.30447652272872
 30
0.0
  0
VERTEX
  5
2F8
  8
LAYER_1
 10
36.56248999874964
 20
17.28832006712695
 30
0.0
  0
VERTEX
  5
2F9
  8
LAYER_1
 10
36.51226640650477
 20
17.27289624457118
 30
0.0
  0
VERTEX
  5
2FA
  8
LAYER_1
 10
36.46181942242339
 20
17.25833319609301
 30
0.0
  0
VERTEX
  5
2FB
  8
LAYER_1
 10
36.411161414726
 20
17.24475906272404
 30
0.0
  0
VERTEX
  5
2FC
  8
LAYER_1
 10
36.38575714209021
 20
17.23838288327787
 30
0.0
  0
VERTEX
  5
2FD
  8
LAYER_1
 10
36.36030475163308
 20
17.23230198549584
 30
0.0
  0
VERTEX
  5
2FE
  8
LAYER_1
 10
36.33480578938219
 20
17.22653238700691
 30
0.0
  0
VERTEX
  5
2FF
  8
LAYER_1
 10
36.30926180136511
 20
17.22109010544002
 30
0.0
  0
VERTEX
  5
300
  8
LAYER_1
 10
36.28367433360939
 20
17.21599115842412
 30
0.0
  0
VERTEX
  5
301
  8
LAYER_1
 10
36.25804493214259
 20
17.21125156358816
 30
0.0
  0
VERTEX
  5
302
  8
LAYER_1
 10
36.23237514299227
 20
17.2068873385611
 30
0.0
  0
VERTEX
  5
303
  8
LAYER_1
 10
36.206666512186
 20
17.20291450097186
 30
0.0
  0
VERTEX
  5
304
  8
LAYER_1
 10
36.18092058575133
 20
17.19934906844942
 30
0.0
  0
VERTEX
  5
305
  8
LAYER_1
 10
36.15513890971583
 20
17.19620705862271
 30
0.0
  0
VERTEX
  5
306
  8
LAYER_1
 10
36.12932303010706
 20
17.19350448912069
 30
0.0
  0
VERTEX
  5
307
  8
LAYER_1
 10
36.10347449295257
 20
17.1912573775723
 30
0.0
  0
VERTEX
  5
308
  8
LAYER_1
 10
36.07759484427994
 20
17.18948174160649
 30
0.0
  0
VERTEX
  5
309
  8
LAYER_1
 10
36.05168563011672
 20
17.18819359885222
 30
0.0
  0
VERTEX
  5
30A
  8
LAYER_1
 10
36.02574839649046
 20
17.18740896693842
 30
0.0
  0
VERTEX
  5
30B
  8
LAYER_1
 10
35.99978468942874
 20
17.18714386349406
 30
0.0
  0
VERTEX
  5
30C
  8
LAYER_1
 10
3.05804606891661
 20
17.18714386349409
 30
0.0
  0
VERTEX
  5
30D
  8
LAYER_1
 10
3.046199281550482
 20
17.18736556930074
 30
0.0
  0
VERTEX
  5
30E
  8
LAYER_1
 10
3.034346092133639
 20
17.18802524697884
 30
0.0
  0
VERTEX
  5
30F
  8
LAYER_1
 10
3.022492675695942
 20
17.18911473691559
 30
0.0
  0
VERTEX
  5
310
  8
LAYER_1
 10
3.010645207267251
 20
17.19062587949821
 30
0.0
  0
VERTEX
  5
311
  8
LAYER_1
 10
2.998809861877426
 20
17.1925505151139
 30
0.0
  0
VERTEX
  5
312
  8
LAYER_1
 10
2.986992814556329
 20
17.19488048414988
 30
0.0
  0
VERTEX
  5
313
  8
LAYER_1
 10
2.97520024033382
 20
17.19760762699336
 30
0.0
  0
VERTEX
  5
314
  8
LAYER_1
 10
2.963438314239759
 20
17.20072378403155
 30
0.0
  0
VERTEX
  5
315
  8
LAYER_1
 10
2.951713211304007
 20
17.20422079565165
 30
0.0
  0
VERTEX
  5
316
  8
LAYER_1
 10
2.940031106556424
 20
17.20809050224087
 30
0.0
  0
VERTEX
  5
317
  8
LAYER_1
 10
2.928398175026871
 20
17.21232474418643
 30
0.0
  0
VERTEX
  5
318
  8
LAYER_1
 10
2.916820591745208
 20
17.21691536187555
 30
0.0
  0
VERTEX
  5
319
  8
LAYER_1
 10
2.905304531741296
 20
17.22185419569541
 30
0.0
  0
VERTEX
  5
31A
  8
LAYER_1
 10
2.893856170044995
 20
17.22713308603325
 30
0.0
  0
VERTEX
  5
31B
  8
LAYER_1
 10
2.882481681686166
 20
17.23274387327626
 30
0.0
  0
VERTEX
  5
31C
  8
LAYER_1
 10
2.871187241694669
 20
17.23867839781166
 30
0.0
  0
VERTEX
  5
31D
  8
LAYER_1
 10
2.859979025100365
 20
17.24492850002666
 30
0.0
  0
VERTEX
  5
31E
  8
LAYER_1
 10
2.848863206933113
 20
17.25148602030847
 30
0.0
  0
VERTEX
  5
31F
  8
LAYER_1
 10
2.837845962222776
 20
17.25834279904429
 30
0.0
  0
VERTEX
  5
320
  8
LAYER_1
 10
2.826933465999213
 20
17.26549067662134
 30
0.0
  0
VERTEX
  5
321
  8
LAYER_1
 10
2.805447419131852
 20
17.28062708984798
 30
0.0
  0
VERTEX
  5
322
  8
LAYER_1
 10
2.784454466569914
 20
17.29682998308604
 30
0.0
  0
VERTEX
  5
323
  8
LAYER_1
 10
2.764004008552282
 20
17.31403407943323
 30
0.0
  0
VERTEX
  5
324
  8
LAYER_1
 10
2.744145445317842
 20
17.33217410198721
 30
0.0
  0
VERTEX
  5
325
  8
LAYER_1
 10
2.724928177105476
 20
17.35118477384567
 30
0.0
  0
VERTEX
  5
326
  8
LAYER_1
 10
2.706401604154069
 20
17.3710008181063
 30
0.0
  0
VERTEX
  5
327
  8
LAYER_1
 10
2.688615126702504
 20
17.39155695786676
 30
0.0
  0
VERTEX
  5
328
  8
LAYER_1
 10
2.671618144989667
 20
17.41278791622475
 30
0.0
  0
VERTEX
  5
329
  8
LAYER_1
 10
2.65546005925444
 20
17.43462841627795
 30
0.0
  0
VERTEX
  5
32A
  8
LAYER_1
 10
2.640190269735708
 20
17.45701318112403
 30
0.0
  0
VERTEX
  5
32B
  8
LAYER_1
 10
2.625858176672354
 20
17.47987693386069
 30
0.0
  0
VERTEX
  5
32C
  8
LAYER_1
 10
2.612513180303263
 20
17.50315439758559
 30
0.0
  0
VERTEX
  5
32D
  8
LAYER_1
 10
2.600204680867319
 20
17.52678029539642
 30
0.0
  0
VERTEX
  5
32E
  8
LAYER_1
 10
2.588982078603405
 20
17.55068935039086
 30
0.0
  0
VERTEX
  5
32F
  8
LAYER_1
 10
2.578894773750406
 20
17.57481628566661
 30
0.0
  0
VERTEX
  5
330
  8
LAYER_1
 10
2.569992166547205
 20
17.59909582432132
 30
0.0
  0
VERTEX
  5
331
  8
LAYER_1
 10
2.566000562138931
 20
17.61127242088382
 30
0.0
  0
VERTEX
  5
332
  8
LAYER_1
 10
2.562323657232687
 20
17.62346268945269
 30
0.0
  0
VERTEX
  5
333
  8
LAYER_1
 10
2.558967626858335
 20
17.63565847041515
 30
0.0
  0
VERTEX
  5
334
  8
LAYER_1
 10
2.555938646045736
 20
17.6478516041584
 30
0.0
  0
VERTEX
  5
335
  8
LAYER_1
 10
2.553242889824749
 20
17.66003393106966
 30
0.0
  0
VERTEX
  5
336
  8
LAYER_1
 10
2.550886533225235
 20
17.67219729153613
 30
0.0
  0
VERTEX
  5
337
  8
LAYER_1
 10
2.548875751277054
 20
17.68433352594502
 30
0.0
  0
VERTEX
  5
338
  8
LAYER_1
 10
2.547216719010068
 20
17.69643447468356
 30
0.0
  0
VERTEX
  5
339
  8
LAYER_1
 10
2.545915611454136
 20
17.70849197813893
 30
0.0
  0
VERTEX
  5
33A
  8
LAYER_1
 10
2.54497860363912
 20
17.72049787669837
 30
0.0
  0
VERTEX
  5
33B
  8
LAYER_1
 10
2.544411870594879
 20
17.73244401074907
 30
0.0
  0
VERTEX
  5
33C
  8
LAYER_1
 10
2.544221587351274
 20
17.74432222067825
 30
0.0
  0
VERTEX
  5
33D
  8
LAYER_1
 10
2.544221587351274
 20
19.69363763749117
 30
0.0
  0
VERTEX
  5
33E
  8
LAYER_1
 10
2.543940898991413
 20
19.71494353488515
 30
0.0
  0
VERTEX
  5
33F
  8
LAYER_1
 10
2.543062579286839
 20
19.73715425445237
 30
0.0
  0
VERTEX
  5
340
  8
LAYER_1
 10
2.541532246300064
 20
19.76011559062263
 30
0.0
  0
VERTEX
  5
341
  8
LAYER_1
 10
2.539295518093599
 20
19.7836733378257
 30
0.0
  0
VERTEX
  5
342
  8
LAYER_1
 10
2.536298012729957
 20
19.80767329049138
 30
0.0
  0
VERTEX
  5
343
  8
LAYER_1
 10
2.532485348271651
 20
19.83196124304947
 30
0.0
  0
VERTEX
  5
344
  8
LAYER_1
 10
2.527803142781191
 20
19.85638298992974
 30
0.0
  0
VERTEX
  5
345
  8
LAYER_1
 10
2.52219701432109
 20
19.880784325562
 30
0.0
  0
VERTEX
  5
346
  8
LAYER_1
 10
2.515612580953861
 20
19.90501104437603
 30
0.0
  0
VERTEX
  5
347
  8
LAYER_1
 10
2.507995460742016
 20
19.92890894080162
 30
0.0
  0
VERTEX
  5
348
  8
LAYER_1
 10
2.503782648713897
 20
19.94068639137807
 30
0.0
  0
VERTEX
  5
349
  8
LAYER_1
 10
2.499291271748066
 20
19.95232380926857
 30
0.0
  0
VERTEX
  5
34A
  8
LAYER_1
 10
2.494514532102337
 20
19.96380191877686
 30
0.0
  0
VERTEX
  5
34B
  8
LAYER_1
 10
2.489445632034523
 20
19.97510144420665
 30
0.0
  0
VERTEX
  5
34C
  8
LAYER_1
 10
2.484077773802439
 20
19.98620310986168
 30
0.0
  0
VERTEX
  5
34D
  8
LAYER_1
 10
2.4784041596639
 20
19.99708764004567
 30
0.0
  0
VERTEX
  5
34E
  8
LAYER_1
 10
2.472417991876718
 20
20.00773575906234
 30
0.0
  0
VERTEX
  5
34F
  8
LAYER_1
 10
2.466112472698709
 20
20.0181281912154
 30
0.0
  0
VERTEX
  5
350
  8
LAYER_1
 10
2.459480804387685
 20
20.0282456608086
 30
0.0
  0
VERTEX
  5
351
  8
LAYER_1
 10
2.452516189201462
 20
20.03806889214566
 30
0.0
  0
VERTEX
  5
352
  8
LAYER_1
 10
2.445211829397852
 20
20.04757860953028
 30
0.0
  0
VERTEX
  5
353
  8
LAYER_1
 10
2.437560927234671
 20
20.05675553726621
 30
0.0
  0
VERTEX
  5
354
  8
LAYER_1
 10
2.429655310015104
 20
20.06547956275483
 30
0.0
  0
VERTEX
  5
355
  8
LAYER_1
 10
2.421417057783747
 20
20.07385979277501
 30
0.0
  0
VERTEX
  5
356
  8
LAYER_1
 10
2.412863046027049
 20
20.08190061080717
 30
0.0
  0
VERTEX
  5
357
  8
LAYER_1
 10
2.404010150231454
 20
20.08960640033175
 30
0.0
  0
VERTEX
  5
358
  8
LAYER_1
 10
2.394875245883408
 20
20.09698154482916
 30
0.0
  0
VERTEX
  5
359
  8
LAYER_1
 10
2.385475208469358
 20
20.10403042777986
 30
0.0
  0
VERTEX
  5
35A
  8
LAYER_1
 10
2.375826913475747
 20
20.11075743266426
 30
0.0
  0
VERTEX
  5
35B
  8
LAYER_1
 10
2.365947236389024
 20
20.11716694296281
 30
0.0
  0
VERTEX
  5
35C
  8
LAYER_1
 10
2.355853052695633
 20
20.12326334215593
 30
0.0
  0
VERTEX
  5
35D
  8
LAYER_1
 10
2.345561237882022
 20
20.12905101372405
 30
0.0
  0
VERTEX
  5
35E
  8
LAYER_1
 10
2.335088667434634
 20
20.13453434114761
 30
0.0
  0
VERTEX
  5
35F
  8
LAYER_1
 10
2.324452216839917
 20
20.13971770790705
 30
0.0
  0
VERTEX
  5
360
  8
LAYER_1
 10
2.313668761584315
 20
20.14460549748279
 30
0.0
  0
VERTEX
  5
361
  8
LAYER_1
 10
2.302755177154276
 20
20.14920209335526
 30
0.0
  0
VERTEX
  5
362
  8
LAYER_1
 10
2.280605122716667
 20
20.15753923791213
 30
0.0
  0
VERTEX
  5
363
  8
LAYER_1
 10
2.258137057418656
 20
20.16476420942113
 30
0.0
  0
VERTEX
  5
364
  8
LAYER_1
 10
2.235485985151811
 20
20.17091207572572
 30
0.0
  0
VERTEX
  5
365
  8
LAYER_1
 10
2.212786909807698
 20
20.17601790466934
 30
0.0
  0
VERTEX
  5
366
  8
LAYER_1
 10
2.190174835277884
 20
20.18011676409546
 30
0.0
  0
VERTEX
  5
367
  8
LAYER_1
 10
2.167784765453937
 20
20.18324372184753
 30
0.0
  0
VERTEX
  5
368
  8
LAYER_1
 10
2.145751704227423
 20
20.18543384576902
 30
0.0
  0
VERTEX
  5
369
  8
LAYER_1
 10
2.124210655489909
 20
20.18672220370338
 30
0.0
  0
VERTEX
  5
36A
  8
LAYER_1
 10
2.103296623132962
 20
20.18714386349406
 30
0.0
  0
VERTEX
  5
36B
  8
LAYER_1
 10
1.303577477773814
 20
20.18714386349406
 30
0.0
  0
VERTEX
  5
36C
  8
LAYER_1
 10
1.292587497430134
 20
20.1873249353184
 30
0.0
  0
VERTEX
  5
36D
  8
LAYER_1
 10
1.281543691577504
 20
20.18786413219069
 30
0.0
  0
VERTEX
  5
36E
  8
LAYER_1
 10
1.270453321042479
 20
20.18875542620986
 30
0.0
  0
VERTEX
  5
36F
  8
LAYER_1
 10
1.259323646651616
 20
20.1899927894748
 30
0.0
  0
VERTEX
  5
370
  8
LAYER_1
 10
1.24816192923147
 20
20.19157019408444
 30
0.0
  0
VERTEX
  5
371
  8
LAYER_1
 10
1.236975429608596
 20
20.1934816121377
 30
0.0
  0
VERTEX
  5
372
  8
LAYER_1
 10
1.225771408609552
 20
20.19572101573347
 30
0.0
  0
VERTEX
  5
373
  8
LAYER_1
 10
1.214557127060891
 20
20.19828237697068
 30
0.0
  0
VERTEX
  5
374
  8
LAYER_1
 10
1.192126825620944
 20
20.20434686076507
 30
0.0
  0
VERTEX
  5
375
  8
LAYER_1
 10
1.169742611901202
 20
20.21162684031216
 30
0.0
  0
VERTEX
  5
376
  8
LAYER_1
 10
1.14746257251411
 20
20.22007409240327
 30
0.0
  0
VERTEX
  5
377
  8
LAYER_1
 10
1.125344794072114
 20
20.22964039382972
 30
0.0
  0
VERTEX
  5
378
  8
LAYER_1
 10
1.103447363187658
 20
20.24027752138279
 30
0.0
  0
VERTEX
  5
379
  8
LAYER_1
 10
1.08182836647319
 20
20.25193725185381
 30
0.0
  0
VERTEX
  5
37A
  8
LAYER_1
 10
1.060545890541154
 20
20.26457136203409
 30
0.0
  0
VERTEX
  5
37B
  8
LAYER_1
 10
1.039658022003996
 20
20.27813162871492
 30
0.0
  0
VERTEX
  5
37C
  8
LAYER_1
 10
1.019222847474161
 20
20.29256982868763
 30
0.0
  0
VERTEX
  5
37D
  8
LAYER_1
 10
0.9992984535640953
 20
20.30783773874352
 30
0.0
  0
VERTEX
  5
37E
  8
LAYER_1
 10
0.9799429268862436
 20
20.32388713567389
 30
0.0
  0
VERTEX
  5
37F
  8
LAYER_1
 10
0.9612143540530518
 20
20.34066979627006
 30
0.0
  0
VERTEX
  5
380
  8
LAYER_1
 10
0.9431708216769654
 20
20.35813749732334
 30
0.0
  0
VERTEX
  5
381
  8
LAYER_1
 10
0.92587041637043
 20
20.37624201562503
 30
0.0
  0
VERTEX
  5
382
  8
LAYER_1
 10
0.9093712247458909
 20
20.39493512796644
 30
0.0
  0
VERTEX
  5
383
  8
LAYER_1
 10
0.8937313334157939
 20
20.41416861113889
 30
0.0
  0
VERTEX
  5
384
  8
LAYER_1
 10
0.8790088289925845
 20
20.43389424193367
 30
0.0
  0
VERTEX
  5
385
  8
LAYER_1
 10
0.8652617980887078
 20
20.45406379714211
 30
0.0
  0
VERTEX
  5
386
  8
LAYER_1
 10
0.8525483273166099
 20
20.4746290535555
 30
0.0
  0
VERTEX
  5
387
  8
LAYER_1
 10
0.8409265032887361
 20
20.49554178796516
 30
0.0
  0
VERTEX
  5
388
  8
LAYER_1
 10
0.8304544126175317
 20
20.51675377716239
 30
0.0
  0
VERTEX
  5
389
  8
LAYER_1
 10
0.8256676693570698
 20
20.52745692255363
 30
0.0
  0
VERTEX
  5
38A
  8
LAYER_1
 10
0.8211901419154425
 20
20.53821679793851
 30
0.0
  0
VERTEX
  5
38B
  8
LAYER_1
 10
0.8170290911192053
 20
20.54902737541593
 30
0.0
  0
VERTEX
  5
38C
  8
LAYER_1
 10
0.813191777794914
 20
20.55988262708482
 30
0.0
  0
VERTEX
  5
38D
  8
LAYER_1
 10
0.8096854627691242
 20
20.57077652504408
 30
0.0
  0
VERTEX
  5
38E
  8
LAYER_1
 10
0.8065174068683916
 20
20.58170304139263
 30
0.0
  0
VERTEX
  5
38F
  8
LAYER_1
 10
0.8036948709192718
 20
20.59265614822937
 30
0.0
  0
VERTEX
  5
390
  8
LAYER_1
 10
0.8012251157483208
 20
20.60362981765324
 30
0.0
  0
VERTEX
  5
391
  8
LAYER_1
 10
0.799115402182094
 20
20.61461802176314
 30
0.0
  0
VERTEX
  5
392
  8
LAYER_1
 10
0.7973729910471472
 20
20.62561473265798
 30
0.0
  0
VERTEX
  5
393
  8
LAYER_1
 10
0.7960051431700361
 20
20.63661392243668
 30
0.0
  0
VERTEX
  5
394
  8
LAYER_1
 10
0.7950191193773163
 20
20.64760956319815
 30
0.0
  0
VERTEX
  5
395
  8
LAYER_1
 10
0.7944221804955436
 20
20.65859562704129
 30
0.0
  0
SEQEND
  5
47E
  8
LAYER_1
  0
POLYLINE
  5
8C
  8
LAYER_1
 66
     1
 10
0.0
 20
0.0
 30
0.0
 70
     1
  0
VERTEX
  5
396
  8
LAYER_1
 10
2.416562678239373
 20
18.93714386349406
 30
0.0
  0
VERTEX
  5
397
  8
LAYER_1
 10
32.91922158735127
 20
18.93714386349406
 30
0.0
  0
VERTEX
  5
398
  8
LAYER_1
 10
32.91922158735127
 20
18.18714386349406
 30
0.0
  0
VERTEX
  5
399
  8
LAYER_1
 10
2.416562678239373
 20
18.18714386349406
 30
0.0
  0
SEQEND
  5
47F
  8
LAYER_1
  0
POLYLINE
  5
8D
  8
LAYER_1
 66
     1
 10
0.0
 20
0.0
 30
0.0
 70
     1
  0
VERTEX
  5
39A
  8
LAYER_1
 10
38.29422158735127
 20
42.37414386349406
 30
0.0
 42
-0.4142135623730951
  0
VERTEX
  5
39B
  8
LAYER_1
 10
38.16872158735129
 20
42.49964386349406
 30
0.0
 42
-0.4142135623730951
  0
VERTEX
  5
39C
  8
LAYER_1
 10
38.29422158735127
 20
42.62514386349406
 30
0.0
 42
-0.4142135623730951
  0
VERTEX
  5
39D
  8
LAYER_1
 10
38.41972158735126
 20
42.49964386349406
 30
0.0
 42
-0.4142135623730951
  0
SEQEND
  5
480
  8
LAYER_1
  0
POLYLINE
  5
8E
  8
LAYER_1
 66
     1
 10
0.0
 20
0.0
 30
0.0
 70
     1
  0
VERTEX
  5
39E
  8
LAYER_1
 10
34.20052158735126
 20
32.53044386349406
 30
0.0
 42
-0.4142135623730951
  0
VERTEX
  5
39F
  8
LAYER_1
 10
34.07502158735127
 20
32.65594386349406
 30
0.0
 42
-0.4142135623730951
  0
VERTEX
  5
3A0
  8
LAYER_1
 10
34.20052158735126
 20
32.78144386349406
 30
0.0
 42
-0.4142135623730951
  0
VERTEX
  5
3A1
  8
LAYER_1
 10
34.32602158735128
 20
32.65594386349406
 30
0.0
 42
-0.4142135623730951
  0
SEQEND
  5
481
  8
LAYER_1
  0
POLYLINE
  5
8F
  8
LAYER_1
 66
     1
 10
0.0
 20
0.0
 30
0.0
 70
     1
  0
VERTEX
  5
3A2
  8
LAYER_1
 10
94.76394998434563
 20
25.70578819661867
 30
0.0
  0
VERTEX
  5
3A3
  8
LAYER_1
 10
71.20144998434563
 20
25.70578819661867
 30
0.0
  0
VERTEX
  5
3A4
  8
LAYER_1
 10
71.20144998434563
 20
0.9557881966186699
 30
0.0
  0
VERTEX
  5
3A5
  8
LAYER_1
 10
94.76394998434563
 20
0.9557881966186663
 30
0.0
  0
SEQEND
  5
482
  8
LAYER_1
  0
POLYLINE
  5
90
  8
LAYER_1
 66
     1
 10
0.0
 20
0.0
 30
0.0
 70
     1
  0
VERTEX
  5
3A6
  8
LAYER_1
 10
92.51394998434563
 20
23.26828819661867
 30
0.0
 42
0.4142135623730951
  0
VERTEX
  5
3A7
  8
LAYER_1
 10
92.70144998434563
 20
23.45578819661867
 30
0.0
 42
0.4142135623730951
  0
VERTEX
  5
3A8
  8
LAYER_1
 10
92.51394998434563
 20
23.64328819661867
 30
0.0
 42
0.4142135623730951
  0
VERTEX
  5
3A9
  8
LAYER_1
 10
92.32644998434563
 20
23.45578819661867
 30
0.0
 42
0.4142135623730951
  0
SEQEND
  5
483
  8
LAYER_1
  0
POLYLINE
  5
91
  8
LAYER_1
 66
     1
 10
0.0
 20
0.0
 30
0.0
 70
     1
  0
VERTEX
  5
3AA
  8
LAYER_1
 10
92.51394998434563
 20
1.768288196618666
 30
0.0
 42
0.4142135623730951
  0
VERTEX
  5
3AB
  8
LAYER_1
 10
92.70144998434563
 20
1.955788196618666
 30
0.0
 42
0.4142135623730951
  0
VERTEX
  5
3AC
  8
LAYER_1
 10
92.51394998434563
 20
2.143288196618666
 30
0.0
 42
0.4142135623730951
  0
VERTEX
  5
3AD
  8
LAYER_1
 10
92.32644998434563
 20
1.955788196618666
 30
0.0
 42
0.4142135623730951
  0
SEQEND
  5
484
  8
LAYER_1
  0
POLYLINE
  5
92
  8
LAYER_1
 66
     1
 10
0.0
 20
0.0
 30
0.0
 70
     1
  0
VERTEX
  5
3AE
  8
LAYER_1
 10
73.45144998434563
 20
1.76828819661867
 30
0.0
 42
0.4142135623730951
  0
VERTEX
  5
3AF
  8
LAYER_1
 10
73.63894998434563
 20
1.95578819661867
 30
0.0
 42
0.4142135623730951
  0
VERTEX
  5
3B0
  8
LAYER_1
 10
73.45144998434563
 20
2.14328819661867
 30
0.0
 42
0.4142135623730951
  0
VERTEX
  5
3B1
  8
LAYER_1
 10
73.26394998434563
 20
1.95578819661867
 30
0.0
 42
0.4142135623730951
  0
SEQEND
  5
485
  8
LAYER_1
  0
POLYLINE
  5
93
  8
LAYER_1
 66
     1
 10
0.0
 20
0.0
 30
0.0
 70
     1
  0
VERTEX
  5
3B2
  8
LAYER_1
 10
73.45144998434563
 20
23.26828819661867
 30
0.0
 42
0.4142135623730951
  0
VERTEX
  5
3B3
  8
LAYER_1
 10
73.63894998434563
 20
23.45578819661867
 30
0.0
 42
0.4142135623730951
  0
VERTEX
  5
3B4
  8
LAYER_1
 10
73.45144998434563
 20
23.64328819661867
 30
0.0
 42
0.4142135623730951
  0
VERTEX
  5
3B5
  8
LAYER_1
 10
73.26394998434563
 20
23.45578819661867
 30
0.0
 42
0.4142135623730951
  0
SEQEND
  5
486
  8
LAYER_1
  0
POLYLINE
  5
94
  8
LAYER_1
 66
     1
 10
0.0
 20
0.0
 30
0.0
 70
     1
  0
VERTEX
  5
3B6
  8
LAYER_1
 10
1.266321618659973
 20
5.019857545397635
 30
0.0
  0
VERTEX
  5
3B7
  8
LAYER_1
 10
24.82882161865997
 20
5.019857545397635
 30
0.0
  0
VERTEX
  5
3B8
  8
LAYER_1
 10
24.82882161865997
 20
15.58235754539763
 30
0.0
  0
VERTEX
  5
3B9
  8
LAYER_1
 10
1.266321618659973
 20
15.58235754539763
 30
0.0
  0
SEQEND
  5
487
  8
LAYER_1
  0
POLYLINE
  5
95
  8
LAYER_1
 66
     1
 10
0.0
 20
0.0
 30
0.0
 70
     1
  0
VERTEX
  5
3BA
  8
LAYER_1
 10
13.14132161865997
 20
6.457857545397637
 30
0.0
 42
0.4142135623730951
  0
VERTEX
  5
3BB
  8
LAYER_1
 10
13.01582161865997
 20
6.332357545397635
 30
0.0
 42
0.4142135623730951
  0
VERTEX
  5
3BC
  8
LAYER_1
 10
13.14132161865997
 20
6.206857545397632
 30
0.0
 42
0.4142135623730951
  0
VERTEX
  5
3BD
  8
LAYER_1
 10
13.26682161865998
 20
6.332357545397635
 30
0.0
 42
0.4142135623730951
  0
SEQEND
  5
488
  8
LAYER_1
  0
POLYLINE
  5
96
  8
LAYER_1
 66
     1
 10
0.0
 20
0.0
 30
0.0
 70
     1
  0
VERTEX
  5
3BE
  8
LAYER_1
 10
13.14132161865997
 20
6.651357545397637
 30
0.0
 42
0.4142135623730951
  0
VERTEX
  5
3BF
  8
LAYER_1
 10
12.82232161865997
 20
6.332357545397635
 30
0.0
 42
0.4142135623730951
  0
VERTEX
  5
3C0
  8
LAYER_1
 10
13.14132161865997
 20
6.013357545397632
 30
0.0
 42
0.4142135623730951
  0
VERTEX
  5
3C1
  8
LAYER_1
 10
13.46032161865998
 20
6.332357545397635
 30
0.0
 42
0.4142135623730951
  0
SEQEND
  5
489
  8
LAYER_1
  0
POLYLINE
  5
97
  8
LAYER_1
 66
     1
 10
0.0
 20
0.0
 30
0.0
 70
     1
  0
VERTEX
  5
3C2
  8
LAYER_1
 10
71.64327841264873
 20
26.97671806512212
 30
0.0
  0
VERTEX
  5
3C3
  8
LAYER_1
 10
95.20577841264873
 20
26.97671806512212
 30
0.0
  0
VERTEX
  5
3C4
  8
LAYER_1
 10
95.20577841264873
 20
29.47671806512212
 30
0.0
  0
VERTEX
  5
3C5
  8
LAYER_1
 10
71.64327841264873
 20
29.47671806512212
 30
0.0
  0
SEQEND
  5
48A
  8
LAYER_1
  0
POLYLINE
  5
98
  8
LAYER_1
 66
     1
 10
0.0
 20
0.0
 30
0.0
 70
     1
  0
VERTEX
  5
3C6
  8
LAYER_1
 10
51.27462910717236
 20
22.18785613650597
 30
0.0
  0
VERTEX
  5
3C7
  8
LAYER_1
 10
65.83715253540947
 20
22.18785613650597
 30
0.0
  0
VERTEX
  5
3C8
  8
LAYER_1
 10
66.837149733876
 20
20.68789028320906
 30
0.0
  0
VERTEX
  5
3C9
  8
LAYER_1
 10
66.837149733876
 20
15.8198805444859
 30
0.0
  0
VERTEX
  5
3CA
  8
LAYER_1
 10
66.84273434396346
 20
15.81285613650595
 30
0.0
  0
VERTEX
  5
3CB
  8
LAYER_1
 10
70.33714973387603
 20
15.81285613650593
 30
0.0
  0
VERTEX
  5
3CC
  8
LAYER_1
 10
70.33714973387603
 20
15.8094437200691
 30
0.0
  0
VERTEX
  5
3CD
  8
LAYER_1
 10
70.33714973387598
 20
5.750356136505946
 30
0.0
  0
VERTEX
  5
3CE
  8
LAYER_1
 10
65.243399733876
 20
0.8128561365059461
 30
0.0
  0
VERTEX
  5
3CF
  8
LAYER_1
 10
51.868399733876
 20
0.8128561365059461
 30
0.0
  0
VERTEX
  5
3D0
  8
LAYER_1
 10
46.774649733876
 20
5.750356136505975
 30
0.0
  0
VERTEX
  5
3D1
  8
LAYER_1
 10
46.774649733876
 20
15.81285613650592
 30
0.0
  0
VERTEX
  5
3D2
  8
LAYER_1
 10
50.27407253421813
 20
15.81285613650595
 30
0.0
  0
VERTEX
  5
3D3
  8
LAYER_1
 10
50.274649733876
 20
15.81426779632993
 30
0.0
  0
VERTEX
  5
3D4
  8
LAYER_1
 10
50.274649733876
 20
20.68888955752586
 30
0.0
  0
SEQEND
  5
48B
  8
LAYER_1
  0
POLYLINE
  5
99
  8
LAYER_1
 66
     1
 10
0.0
 20
0.0
 30
0.0
 70
     1
  0
VERTEX
  5
3D5
  8
LAYER_1
 10
61.18084973387661
 20
20.06185613650606
 30
0.0
 42
0.4142135623730951
  0
VERTEX
  5
3D6
  8
LAYER_1
 10
61.3063497338766
 20
20.18735613650606
 30
0.0
 42
0.4142135623730951
  0
VERTEX
  5
3D7
  8
LAYER_1
 10
61.18084973387661
 20
20.31285613650606
 30
0.0
 42
0.4142135623730951
  0
VERTEX
  5
3D8
  8
LAYER_1
 10
61.0553497338766
 20
20.18735613650606
 30
0.0
 42
0.4142135623730951
  0
SEQEND
  5
48C
  8
LAYER_1
  0
POLYLINE
  5
9A
  8
LAYER_1
 66
     1
 10
0.0
 20
0.0
 30
0.0
 70
     1
  0
VERTEX
  5
3D9
  8
LAYER_1
 10
61.18084973387602
 20
14.81185613650597
 30
0.0
 42
0.4142135623730951
  0
VERTEX
  5
3DA
  8
LAYER_1
 10
61.306349733876
 20
14.93735613650593
 30
0.0
 42
0.4142135623730951
  0
VERTEX
  5
3DB
  8
LAYER_1
 10
61.18084973387602
 20
15.06285613650595
 30
0.0
 42
0.4142135623730951
  0
VERTEX
  5
3DC
  8
LAYER_1
 10
61.05534973387597
 20
14.93735613650596
 30
0.0
 42
0.4142135623730951
  0
SEQEND
  5
48D
  8
LAYER_1
  0
POLYLINE
  5
9B
  8
LAYER_1
 66
     1
 10
0.0
 20
0.0
 30
0.0
 70
     1
  0
VERTEX
  5
3DD
  8
LAYER_1
 10
55.93084973387602
 20
14.81185613650597
 30
0.0
 42
0.4142135623730951
  0
VERTEX
  5
3DE
  8
LAYER_1
 10
56.056349733876
 20
14.93735613650596
 30
0.0
 42
0.4142135623730951
  0
VERTEX
  5
3DF
  8
LAYER_1
 10
55.93084973387602
 20
15.06285613650595
 30
0.0
 42
0.4142135623730951
  0
VERTEX
  5
3E0
  8
LAYER_1
 10
55.80534973387603
 20
14.93735613650596
 30
0.0
 42
0.4142135623730951
  0
SEQEND
  5
48E
  8
LAYER_1
  0
POLYLINE
  5
9C
  8
LAYER_1
 66
     1
 10
0.0
 20
0.0
 30
0.0
 70
     1
  0
VERTEX
  5
3E1
  8
LAYER_1
 10
55.93084973387658
 20
20.06185613650606
 30
0.0
 42
0.4142135623730951
  0
VERTEX
  5
3E2
  8
LAYER_1
 10
56.0563497338766
 20
20.18735613650602
 30
0.0
 42
0.4142135623730951
  0
VERTEX
  5
3E3
  8
LAYER_1
 10
55.93084973387658
 20
20.31285613650606
 30
0.0
 42
0.4142135623730951
  0
VERTEX
  5
3E4
  8
LAYER_1
 10
55.8053497338766
 20
20.18735613650605
 30
0.0
 42
0.4142135623730951
  0
SEQEND
  5
48F
  8
LAYER_1
  0
POLYLINE
  5
9D
  8
LAYER_1
 66
     1
 10
0.0
 20
0.0
 30
0.0
 70
     1
  0
VERTEX
  5
3E5
  8
LAYER_1
 10
58.55584973387602
 20
15.06235613650596
 30
0.0
 42
0.4142135623730951
  0
VERTEX
  5
3E6
  8
LAYER_1
 10
61.05584973387602
 20
17.56235613650593
 30
0.0
 42
0.4142135623730951
  0
VERTEX
  5
3E7
  8
LAYER_1
 10
58.55584973387602
 20
20.06235613650594
 30
0.0
 42
0.4142135623730951
  0
VERTEX
  5
3E8
  8
LAYER_1
 10
56.05584973387602
 20
17.56235613650596
 30
0.0
 42
0.4142135623730951
  0
SEQEND
  5
490
  8
LAYER_1
  0
POLYLINE
  5
9E
  8
LAYER_1
 66
     1
 10
0.0
 20
0.0
 30
0.0
 70
     1
  0
VERTEX
  5
3E9
  8
LAYER_1
 10
0.9114413744520817
 20
1.598195835942404
 30
0.0
  0
VERTEX
  5
3EA
  8
LAYER_1
 10
22.91144137445208
 20
1.598195835942404
 30
0.0
  0
VERTEX
  5
3EB
  8
LAYER_1
 10
22.91144137445208
 20
3.098195835942404
 30
0.0
  0
VERTEX
  5
3EC
  8
LAYER_1
 10
0.9114413744520817
 20
3.098195835942404
 30
0.0
  0
SEQEND
  5
491
  8
LAYER_1
  0
POLYLINE
  5
9F
  8
LAYER_1
 66
     1
 10
0.0
 20
0.0
 30
0.0
 70
     1
  0
VERTEX
  5
3ED
  8
LAYER_1
 10
24.29820121284496
 20
1.676331130145845
 30
0.0
  0
VERTEX
  5
3EE
  8
LAYER_1
 10
47.11068452094472
 20
1.703927645689063
 30
0.0
  0
VERTEX
  5
3EF
  8
LAYER_1
 10
47.10947481067433
 20
2.703926913989326
 30
0.0
  0
VERTEX
  5
3F0
  8
LAYER_1
 10
24.29699150257457
 20
2.676330398446115
 30
0.0
  0
SEQEND
  5
492
  8
LAYER_1
  0
POLYLINE
  5
A0
  8
LAYER_1
 66
     1
 10
0.0
 20
0.0
 30
0.0
 70
     1
  0
VERTEX
  5
3F1
  8
LAYER_1
 10
24.17221841471273
 20
2.488679321856003
 30
0.0
  0
VERTEX
  5
3F2
  8
LAYER_1
 10
47.24220153439978
 20
2.516587337793843
 30
0.0
  0
VERTEX
  5
3F3
  8
LAYER_1
 10
47.24189789712193
 20
2.767587154137209
 30
0.0
  0
VERTEX
  5
3F4
  8
LAYER_1
 10
24.17191477743486
 20
2.739679138199373
 30
0.0
  0
SEQEND
  5
493
  8
LAYER_1
  0
POLYLINE
  5
A1
  8
LAYER_1
 66
     1
 10
0.0
 20
0.0
 30
0.0
 70
     1
  0
VERTEX
  5
3F5
  8
LAYER_1
 10
26.55114081089542
 20
14.09624686912963
 30
0.0
  0
VERTEX
  5
3F6
  8
LAYER_1
 10
38.55114081089542
 20
14.09624686912963
 30
0.0
  0
VERTEX
  5
3F7
  8
LAYER_1
 10
38.55114081089542
 20
15.72124686912963
 30
0.0
  0
VERTEX
  5
3F8
  8
LAYER_1
 10
26.55114081089542
 20
15.72124686912963
 30
0.0
  0
SEQEND
  5
494
  8
LAYER_1
  0
POLYLINE
  5
A2
  8
LAYER_1
 66
     1
 10
0.0
 20
0.0
 30
0.0
 70
     1
  0
VERTEX
  5
3F9
  8
LAYER_1
 10
38.61425915779586
 20
12.62844787100815
 30
0.0
  0
VERTEX
  5
3FA
  8
LAYER_1
 10
26.61425915779586
 20
12.62844787100815
 30
0.0
  0
VERTEX
  5
3FB
  8
LAYER_1
 10
26.61425915779586
 20
11.00344787100815
 30
0.0
  0
VERTEX
  5
3FC
  8
LAYER_1
 10
38.61425915779586
 20
11.00344787100815
 30
0.0
  0
SEQEND
  5
495
  8
LAYER_1
  0
POLYLINE
  5
A3
  8
LAYER_1
 66
     1
 10
0.0
 20
0.0
 30
0.0
 70
     1
  0
VERTEX
  5
3FD
  8
LAYER_1
 10
45.89517650281778
 20
5.559811365059499
 30
0.0
  0
VERTEX
  5
3FE
  8
LAYER_1
 10
25.64517650281778
 20
5.559811365059499
 30
0.0
  0
VERTEX
  5
3FF
  8
LAYER_1
 10
25.64517650281778
 20
4.059811365059499
 30
0.0
  0
VERTEX
  5
400
  8
LAYER_1
 10
45.89517650281778
 20
4.059811365059499
 30
0.0
  0
SEQEND
  5
496
  8
LAYER_1
  0
POLYLINE
  5
A4
  8
LAYER_1
 66
     1
 10
0.0
 20
0.0
 30
0.0
 70
     1
  0
VERTEX
  5
401
  8
LAYER_1
 10
91.478989902943
 20
32.51072714464622
 30
0.0
  0
VERTEX
  5
402
  8
LAYER_1
 10
73.728989902943
 20
32.51072714464623
 30
0.0
  0
VERTEX
  5
403
  8
LAYER_1
 10
73.728989902943
 20
30.88572714464623
 30
0.0
  0
VERTEX
  5
404
  8
LAYER_1
 10
91.478989902943
 20
30.88572714464622
 30
0.0
  0
SEQEND
  5
497
  8
LAYER_1
  0
POLYLINE
  5
A5
  8
LAYER_1
 66
     1
 10
0.0
 20
0.0
 30
0.0
 70
     1
  0
VERTEX
  5
405
  8
LAYER_1
 10
29.13161983406386
 20
6.903847056981853
 30
0.0
  0
VERTEX
  5
406
  8
LAYER_1
 10
29.13161983406386
 20
9.153847056981853
 30
0.0
  0
VERTEX
  5
407
  8
LAYER_1
 10
26.88161983406386
 20
9.153847056981853
 30
0.0
  0
VERTEX
  5
408
  8
LAYER_1
 10
26.88161983406386
 20
6.903847056981853
 30
0.0
  0
SEQEND
  5
498
  8
LAYER_1
  0
POLYLINE
  5
A6
  8
LAYER_1
 66
     1
 10
0.0
 20
0.0
 30
0.0
 70
     1
  0
VERTEX
  5
409
  8
LAYER_1
 10
28.00665316164724
 20
8.591384953083356
 30
0.0
 42
0.4142135623730951
  0
VERTEX
  5
40A
  8
LAYER_1
 10
27.44415316164724
 20
8.028884953083356
 30
0.0
 42
0.4142135623730951
  0
VERTEX
  5
40B
  8
LAYER_1
 10
28.00665316164724
 20
7.466384953083356
 30
0.0
 42
0.4142135623730951
  0
VERTEX
  5
40C
  8
LAYER_1
 10
28.56915316164724
 20
8.028884953083356
 30
0.0
 42
0.4142135623730951
  0
SEQEND
  5
499
  8
LAYER_1
  0
POLYLINE
  5
A7
  8
LAYER_1
 66
     1
 10
0.0
 20
0.0
 30
0.0
 70
     1
  0
VERTEX
  5
40D
  8
LAYER_1
 10
28.00661983406386
 20
8.310097056981853
 30
0.0
 42
0.4142135623730951
  0
VERTEX
  5
40E
  8
LAYER_1
 10
27.72536983406386
 20
8.028847056981853
 30
0.0
 42
0.4142135623730951
  0
VERTEX
  5
40F
  8
LAYER_1
 10
28.00661983406386
 20
7.747597056981853
 30
0.0
 42
0.4142135623730951
  0
VERTEX
  5
410
  8
LAYER_1
 10
28.28786983406386
 20
8.028847056981853
 30
0.0
 42
0.4142135623730951
  0
SEQEND
  5
49A
  8
LAYER_1
  0
POLYLINE
  5
A8
  8
LAYER_1
 66
     1
 10
0.0
 20
0.0
 30
0.0
 70
     1
  0
VERTEX
  5
411
  8
LAYER_1
 10
43.39636623356293
 20
6.966965403882291
 30
0.0
  0
VERTEX
  5
412
  8
LAYER_1
 10
43.39636623356293
 20
9.216965403882291
 30
0.0
  0
VERTEX
  5
413
  8
LAYER_1
 10
41.14636623356293
 20
9.216965403882291
 30
0.0
  0
VERTEX
  5
414
  8
LAYER_1
 10
41.14636623356293
 20
6.966965403882291
 30
0.0
  0
SEQEND
  5
49B
  8
LAYER_1
  0
POLYLINE
  5
A9
  8
LAYER_1
 66
     1
 10
0.0
 20
0.0
 30
0.0
 70
     1
  0
VERTEX
  5
415
  8
LAYER_1
 10
42.27139956114632
 20
8.654503299983794
 30
0.0
 42
0.4142135623730951
  0
VERTEX
  5
416
  8
LAYER_1
 10
41.70889956114632
 20
8.092003299983794
 30
0.0
 42
0.4142135623730951
  0
VERTEX
  5
417
  8
LAYER_1
 10
42.27139956114632
 20
7.529503299983794
 30
0.0
 42
0.4142135623730951
  0
VERTEX
  5
418
  8
LAYER_1
 10
42.83389956114632
 20
8.092003299983794
 30
0.0
 42
0.4142135623730951
  0
SEQEND
  5
49C
  8
LAYER_1
  0
POLYLINE
  5
AA
  8
LAYER_1
 66
     1
 10
0.0
 20
0.0
 30
0.0
 70
     1
  0
VERTEX
  5
419
  8
LAYER_1
 10
42.27136623356293
 20
8.373215403882291
 30
0.0
 42
0.4142135623730951
  0
VERTEX
  5
41A
  8
LAYER_1
 10
41.99011623356293
 20
8.091965403882291
 30
0.0
 42
0.4142135623730951
  0
VERTEX
  5
41B
  8
LAYER_1
 10
42.27136623356293
 20
7.810715403882291
 30
0.0
 42
0.4142135623730951
  0
VERTEX
  5
41C
  8
LAYER_1
 10
42.55261623356293
 20
8.091965403882291
 30
0.0
 42
0.4142135623730951
  0
SEQEND
  5
49D
  8
LAYER_1
  0
POLYLINE
  5
AB
  8
LAYER_1
 66
     1
 10
0.0
 20
0.0
 30
0.0
 70
     1
  0
VERTEX
  5
41D
  8
LAYER_1
 10
38.78872690983093
 20
6.966965403882291
 30
0.0
  0
VERTEX
  5
41E
  8
LAYER_1
 10
38.78872690983093
 20
9.216965403882291
 30
0.0
  0
VERTEX
  5
41F
  8
LAYER_1
 10
36.53872690983093
 20
9.216965403882291
 30
0.0
  0
VERTEX
  5
420
  8
LAYER_1
 10
36.53872690983093
 20
6.966965403882291
 30
0.0
  0
SEQEND
  5
49E
  8
LAYER_1
  0
POLYLINE
  5
AC
  8
LAYER_1
 66
     1
 10
0.0
 20
0.0
 30
0.0
 70
     1
  0
VERTEX
  5
421
  8
LAYER_1
 10
37.66376023741429
 20
8.654503299983794
 30
0.0
 42
0.4142135623730951
  0
VERTEX
  5
422
  8
LAYER_1
 10
37.10126023741429
 20
8.092003299983794
 30
0.0
 42
0.4142135623730951
  0
VERTEX
  5
423
  8
LAYER_1
 10
37.66376023741429
 20
7.529503299983794
 30
0.0
 42
0.4142135623730951
  0
VERTEX
  5
424
  8
LAYER_1
 10
38.22626023741429
 20
8.092003299983794
 30
0.0
 42
0.4142135623730951
  0
SEQEND
  5
49F
  8
LAYER_1
  0
POLYLINE
  5
AD
  8
LAYER_1
 66
     1
 10
0.0
 20
0.0
 30
0.0
 70
     1
  0
VERTEX
  5
425
  8
LAYER_1
 10
37.66372690983093
 20
8.373215403882291
 30
0.0
 42
0.4142135623730951
  0
VERTEX
  5
426
  8
LAYER_1
 10
37.38247690983093
 20
8.091965403882291
 30
0.0
 42
0.4142135623730951
  0
VERTEX
  5
427
  8
LAYER_1
 10
37.66372690983093
 20
7.810715403882291
 30
0.0
 42
0.4142135623730951
  0
VERTEX
  5
428
  8
LAYER_1
 10
37.94497690983093
 20
8.091965403882291
 30
0.0
 42
0.4142135623730951
  0
SEQEND
  5
4A0
  8
LAYER_1
  0
POLYLINE
  5
AE
  8
LAYER_1
 66
     1
 10
0.0
 20
0.0
 30
0.0
 70
     1
  0
VERTEX
  5
429
  8
LAYER_1
 10
34.18108758609893
 20
6.903847056981853
 30
0.0
  0
VERTEX
  5
42A
  8
LAYER_1
 10
34.18108758609893
 20
9.153847056981853
 30
0.0
  0
VERTEX
  5
42B
  8
LAYER_1
 10
31.93108758609893
 20
9.153847056981853
 30
0.0
  0
VERTEX
  5
42C
  8
LAYER_1
 10
31.93108758609893
 20
6.903847056981853
 30
0.0
  0
SEQEND
  5
4A1
  8
LAYER_1
  0
POLYLINE
  5
AF
  8
LAYER_1
 66
     1
 10
0.0
 20
0.0
 30
0.0
 70
     1
  0
VERTEX
  5
42D
  8
LAYER_1
 10
33.05612091368229
 20
8.591384953083356
 30
0.0
 42
0.4142135623730951
  0
VERTEX
  5
42E
  8
LAYER_1
 10
32.49362091368229
 20
8.028884953083356
 30
0.0
 42
0.4142135623730951
  0
VERTEX
  5
42F
  8
LAYER_1
 10
33.05612091368229
 20
7.466384953083356
 30
0.0
 42
0.4142135623730951
  0
VERTEX
  5
430
  8
LAYER_1
 10
33.61862091368229
 20
8.028884953083356
 30
0.0
 42
0.4142135623730951
  0
SEQEND
  5
4A2
  8
LAYER_1
  0
POLYLINE
  5
B0
  8
LAYER_1
 66
     1
 10
0.0
 20
0.0
 30
0.0
 70
     1
  0
VERTEX
  5
431
  8
LAYER_1
 10
33.05608758609893
 20
8.310097056981853
 30
0.0
 42
0.4142135623730951
  0
VERTEX
  5
432
  8
LAYER_1
 10
32.77483758609893
 20
8.028847056981853
 30
0.0
 42
0.4142135623730951
  0
VERTEX
  5
433
  8
LAYER_1
 10
33.05608758609893
 20
7.747597056981853
 30
0.0
 42
0.4142135623730951
  0
VERTEX
  5
434
  8
LAYER_1
 10
33.33733758609893
 20
8.028847056981853
 30
0.0
 42
0.4142135623730951
  0
SEQEND
  5
4A3
  8
LAYER_1
  0
POLYLINE
  5
B1
  8
LAYER_1
 66
     1
 10
0.0
 20
0.0
 30
0.0
 70
     1
  0
VERTEX
  5
435
  8
LAYER_1
 10
122.9889875422297
 20
45.46531547617788
 30
0.0
  0
VERTEX
  5
436
  8
LAYER_1
 10
99.55148754222972
 20
45.46531547617788
 30
0.0
  0
VERTEX
  5
437
  8
LAYER_1
 10
99.55148754222967
 20
-2.284684523822122
 30
0.0
  0
VERTEX
  5
438
  8
LAYER_1
 10
122.9889875422297
 20
-2.284684523822122
 30
0.0
  0
SEQEND
  5
4A4
  8
LAYER_1
  0
POLYLINE
  5
B2
  8
LAYER_1
 66
     1
 10
0.0
 20
0.0
 30
0.0
 70
     1
  0
VERTEX
  5
439
  8
LAYER_1
 10
111.2701875422297
 20
-0.5971845238221221
 30
0.0
 42
0.4142135623730951
  0
VERTEX
  5
43A
  8
LAYER_1
 10
111.6451875422297
 20
-0.2221845238221221
 30
0.0
 42
0.4142135623730951
  0
VERTEX
  5
43B
  8
LAYER_1
 10
111.2701875422297
 20
0.1528154761778779
 30
0.0
 42
0.4142135623730951
  0
VERTEX
  5
43C
  8
LAYER_1
 10
110.8951875422297
 20
-0.2221845238221221
 30
0.0
 42
0.4142135623730951
  0
SEQEND
  5
4A5
  8
LAYER_1
  0
POLYLINE
  5
B3
  8
LAYER_1
 66
     1
 10
0.0
 20
0.0
 30
0.0
 70
     1
  0
VERTEX
  5
43D
  8
LAYER_1
 10
117.9576875422297
 20
40.27781547617788
 30
0.0
  0
VERTEX
  5
43E
  8
LAYER_1
 10
104.5826875422297
 20
40.27781547617788
 30
0.0
  0
VERTEX
  5
43F
  8
LAYER_1
 10
104.5826875422297
 20
31.15281547617788
 30
0.0
  0
VERTEX
  5
440
  8
LAYER_1
 10
117.9576875422297
 20
31.15281547617788
 30
0.0
  0
SEQEND
  5
4A6
  8
LAYER_1
  0
POLYLINE
  5
B4
  8
LAYER_1
 66
     1
 10
0.0
 20
0.0
 30
0.0
 70
     1
  0
VERTEX
  5
441
  8
LAYER_1
 10
99.07945344364009
 20
-24.87559373492739
 30
0.0
  0
VERTEX
  5
442
  8
LAYER_1
 10
122.6419534436401
 20
-24.87559373492739
 30
0.0
  0
VERTEX
  5
443
  8
LAYER_1
 10
122.6419534436401
 20
-17.37559373492739
 30
0.0
  0
VERTEX
  5
444
  8
LAYER_1
 10
99.07945344364009
 20
-17.37559373492739
 30
0.0
  0
SEQEND
  5
4A7
  8
LAYER_1
  0
POLYLINE
  5
B5
  8
LAYER_1
 66
     1
 10
0.0
 20
0.0
 30
0.0
 70
     1
  0
VERTEX
  5
445
  8
LAYER_1
 10
101.855157889476
 20
-22.71454176247904
 30
0.0
 42
0.4142135623730951
  0
VERTEX
  5
446
  8
LAYER_1
 10
101.5395661549738
 20
-23.03013349698123
 30
0.0
 42
0.4142135623730951
  0
VERTEX
  5
447
  8
LAYER_1
 10
101.855157889476
 20
-23.34572523148342
 30
0.0
 42
0.4142135623730951
  0
VERTEX
  5
448
  8
LAYER_1
 10
102.1707496239782
 20
-23.03013349698123
 30
0.0
 42
0.4142135623730951
  0
SEQEND
  5
4A8
  8
LAYER_1
  0
POLYLINE
  5
B6
  8
LAYER_1
 66
     1
 10
0.0
 20
0.0
 30
0.0
 70
     1
  0
VERTEX
  5
449
  8
LAYER_1
 10
123.0104398747281
 20
-29.73455951707908
 30
0.0
  0
VERTEX
  5
44A
  8
LAYER_1
 10
123.0104398747281
 20
-49.35955951707909
 30
0.0
  0
VERTEX
  5
44B
  8
LAYER_1
 10
124.5104398747281
 20
-49.35955951707909
 30
0.0
  0
VERTEX
  5
44C
  8
LAYER_1
 10
124.5104398747281
 20
-29.73455951707908
 30
0.0
  0
SEQEND
  5
4A9
  8
LAYER_1
  0
POLYLINE
  5
B7
  8
LAYER_1
 66
     1
 10
0.0
 20
0.0
 30
0.0
 70
     1
  0
VERTEX
  5
44D
  8
LAYER_1
 10
122.8929739063753
 20
-4.106881346887874
 30
0.0
  0
VERTEX
  5
44E
  8
LAYER_1
 10
99.33047678285772
 20
-4.118524122584496
 30
0.0
  0
VERTEX
  5
44F
  8
LAYER_1
 10
99.33337975610834
 20
-9.993523405371391
 30
0.0
  0
VERTEX
  5
450
  8
LAYER_1
 10
122.8958768796259
 20
-9.981880629674741
 30
0.0
  0
SEQEND
  5
4AA
  8
LAYER_1
  0
POLYLINE
  5
B8
  8
LAYER_1
 66
     1
 10
0.0
 20
0.0
 30
0.0
 70
     1
  0
VERTEX
  5
451
  8
LAYER_1
 10
122.8552367595121
 20
48.52655530084915
 30
0.0
  0
VERTEX
  5
452
  8
LAYER_1
 10
100.8552367595121
 20
48.52655530084915
 30
0.0
  0
VERTEX
  5
453
  8
LAYER_1
 10
100.8552367595121
 20
47.02655530084915
 30
0.0
  0
VERTEX
  5
454
  8
LAYER_1
 10
122.8552367595121
 20
47.02655530084915
 30
0.0
  0
SEQEND
  5
4AB
  8
LAYER_1
  0
POLYLINE
  5
B9
  8
LAYER_1
 66
     1
 10
0.0
 20
0.0
 30
0.0
 70
     1
  0
VERTEX
  5
455
  8
LAYER_1
 10
122.7050717905405
 20
-11.67762880067566
 30
0.0
  0
VERTEX
  5
456
  8
LAYER_1
 10
99.1425717905405
 20
-11.67762880067566
 30
0.0
  0
VERTEX
  5
457
  8
LAYER_1
 10
99.1425717905405
 20
-15.67762880067566
 30
0.0
  0
VERTEX
  5
458
  8
LAYER_1
 10
122.7050717905405
 20
-15.67762880067566
 30
0.0
  0
SEQEND
  5
4AC
  8
LAYER_1
  0
POLYLINE
  5
BA
  8
LAYER_1
 66
     1
 10
0.0
 20
0.0
 30
0.0
 70
     1
  0
VERTEX
  5
459
  8
LAYER_1
 10
121.5925187714842
 20
-47.52974734002889
 30
0.0
  0
VERTEX
  5
45A
  8
LAYER_1
 10
121.5925352097313
 20
-32.34224580386681
 30
0.0
  0
VERTEX
  5
45B
  8
LAYER_1
 10
116.4518852097313
 20
-27.02974580386681
 30
0.0
  0
VERTEX
  5
45C
  8
LAYER_1
 10
103.1706852097313
 20
-27.02974580386681
 30
0.0
  0
VERTEX
  5
45D
  8
LAYER_1
 10
98.03003520973127
 20
-32.34224580386681
 30
0.0
  0
VERTEX
  5
45E
  8
LAYER_1
 10
98.03003520973127
 20
-47.52974580386681
 30
0.0
  0
VERTEX
  5
45F
  8
LAYER_1
 10
98.03003520973127
 20
-48.52974580386681
 30
0.0
  0
VERTEX
  5
460
  8
LAYER_1
 10
121.5925352097313
 20
-48.52974580386681
 30
0.0
  0
SEQEND
  5
4AD
  8
LAYER_1
  0
ENDSEC
  0
EOF
