  0
SECTION
  2
HEADER
  9
$ACADVER
  1
AC1009
  9
$DWGCODEPAGE
  3
ansi_1252
  9
$INSBASE
 10
0.0
 20
0.0
 30
0.0
  9
$EXTMIN
 10
1.308430821491548
 20
-51.60215970620878
 30
0.0
  9
$EXTMAX
 10
156.3115372845839
 20
46.3706391747421
 30
0.0
  9
$LIMMIN
 10
0.0
 20
0.0
  9
$LIMMAX
 10
12.0
 20
9.0
  9
$ORTHOMODE
 70
     0
  9
$REGENMODE
 70
     1
  9
$FILLMODE
 70
     1
  9
$QTEXTMODE
 70
     0
  9
$MIRRTEXT
 70
     1
  9
$DRAGMODE
 70
     2
  9
$LTSCALE
 40
1.0
  9
$OSMODE
 70
    37
  9
$ATTMODE
 70
     1
  9
$TEXTSIZE
 40
0.2
  9
$TRACEWID
 40
0.05
  9
$TEXTSTYLE
  7
STANDARD
  9
$CLAYER
  8
0
  9
$CELTYPE
  6
BYLAYER
  9
$CECOLOR
 62
   256
  9
$DIMSCALE
 40
1.0
  9
$DIMASZ
 40
0.18
  9
$DIMEXO
 40
0.0625
  9
$DIMDLI
 40
0.38
  9
$DIMRND
 40
0.0
  9
$DIMDLE
 40
0.0
  9
$DIMEXE
 40
0.18
  9
$DIMTP
 40
0.0
  9
$DIMTM
 40
0.0
  9
$DIMTXT
 40
0.18
  9
$DIMCEN
 40
0.09
  9
$DIMTSZ
 40
0.0
  9
$DIMTOL
 70
     0
  9
$DIMLIM
 70
     0
  9
$DIMTIH
 70
     1
  9
$DIMTOH
 70
     1
  9
$DIMSE1
 70
     0
  9
$DIMSE2
 70
     0
  9
$DIMTAD
 70
     0
  9
$DIMZIN
 70
     0
  9
$DIMBLK
  1

  9
$DIMASO
 70
     1
  9
$DIMSHO
 70
     1
  9
$DIMPOST
  1

  9
$DIMAPOST
  1

  9
$DIMALT
 70
     0
  9
$DIMALTD
 70
     2
  9
$DIMALTF
 40
25.4
  9
$DIMLFAC
 40
1.0
  9
$DIMTOFL
 70
     0
  9
$DIMTVP
 40
0.0
  9
$DIMTIX
 70
     0
  9
$DIMSOXD
 70
     0
  9
$DIMSAH
 70
     0
  9
$DIMBLK1
  1

  9
$DIMBLK2
  1

  9
$DIMSTYLE
  2
STANDARD
  9
$DIMCLRD
 70
     0
  9
$DIMCLRE
 70
     0
  9
$DIMCLRT
 70
     0
  9
$DIMTFAC
 40
1.0
  9
$DIMGAP
 40
0.09
  9
$LUNITS
 70
     2
  9
$LUPREC
 70
     4
  9
$SKETCHINC
 40
0.1
  9
$FILLETRAD
 40
0.5
  9
$AUNITS
 70
     0
  9
$AUPREC
 70
     0
  9
$MENU
  1
.
  9
$ELEVATION
 40
0.0
  9
$PELEVATION
 40
0.0
  9
$THICKNESS
 40
0.0
  9
$LIMCHECK
 70
     0
  9
$CHAMFERA
 40
0.0
  9
$CHAMFERB
 40
0.0
  9
$SKPOLY
 70
     0
  9
$TDCREATE
 40
2454910.5
  9
$TDUPDATE
 40
2457528.442501123
  9
$TDINDWG
 40
0.0000000116
  9
$TDUSRTIMER
 40
0.0000000116
  9
$USRTIMER
 70
     1
  9
$ANGBASE
 50
0.0
  9
$ANGDIR
 70
     0
  9
$PDMODE
 70
     0
  9
$PDSIZE
 40
0.0
  9
$PLINEWID
 40
0.0
  9
$COORDS
 70
     1
  9
$SPLFRAME
 70
     0
  9
$SPLINETYPE
 70
     6
  9
$SPLINESEGS
 70
     8
  9
$ATTDIA
 70
     0
  9
$ATTREQ
 70
     1
  9
$HANDLING
 70
     1
  9
$HANDSEED
  5
50E
  9
$SURFTAB1
 70
     6
  9
$SURFTAB2
 70
     6
  9
$SURFTYPE
 70
     6
  9
$SURFU
 70
     6
  9
$SURFV
 70
     6
  9
$UCSNAME
  2

  9
$UCSORG
 10
0.0
 20
0.0
 30
0.0
  9
$UCSXDIR
 10
1.0
 20
0.0
 30
0.0
  9
$UCSYDIR
 10
0.0
 20
1.0
 30
0.0
  9
$PUCSNAME
  2

  9
$PUCSORG
 10
0.0
 20
0.0
 30
0.0
  9
$PUCSXDIR
 10
1.0
 20
0.0
 30
0.0
  9
$PUCSYDIR
 10
0.0
 20
1.0
 30
0.0
  9
$USERI1
 70
     0
  9
$USERI2
 70
     0
  9
$USERI3
 70
     0
  9
$USERI4
 70
     0
  9
$USERI5
 70
     0
  9
$USERR1
 40
0.0
  9
$USERR2
 40
0.0
  9
$USERR3
 40
0.0
  9
$USERR4
 40
0.0
  9
$USERR5
 40
0.0
  9
$WORLDVIEW
 70
     1
  9
$SHADEDGE
 70
     3
  9
$SHADEDIF
 70
    70
  9
$TILEMODE
 70
     1
  9
$MAXACTVP
 70
    64
  9
$PLIMCHECK
 70
     0
  9
$PEXTMIN
 10
1.000000000000000E+20
 20
1.000000000000000E+20
 30
1.000000000000000E+20
  9
$PEXTMAX
 10
-1.000000000000000E+20
 20
-1.000000000000000E+20
 30
-1.000000000000000E+20
  9
$PLIMMIN
 10
0.0
 20
0.0
  9
$PLIMMAX
 10
12.0
 20
9.0
  9
$UNITMODE
 70
     0
  9
$VISRETAIN
 70
     1
  9
$PLINEGEN
 70
     0
  9
$PSLTSCALE
 70
     1
  0
ENDSEC
  0
SECTION
  2
TABLES
  0
TABLE
  2
VPORT
 70
     1
  0
VPORT
  2
*ACTIVE
 70
     0
 10
0.0
 20
0.0
 11
1.0
 21
1.0
 12
10.42990654205607
 22
4.5
 13
0.0
 23
0.0
 14
0.5
 24
0.5
 15
0.5
 25
0.5
 16
0.0
 26
0.0
 36
1.0
 17
0.0
 27
0.0
 37
0.0
 40
9.0
 41
1.972972972850329
 42
50.0
 43
0.0
 44
0.0
 50
0.0
 51
0.0
 71
     0
 72
   100
 73
     1
 74
     3
 75
     0
 76
     0
 77
     0
 78
     0
  0
ENDTAB
  0
TABLE
  2
LTYPE
 70
     2
  0
LTYPE
  2
CONTINUOUS
 70
     0
  3
Solid line
 72
    65
 73
     0
 40
0.0
  0
LTYPE
  2
CONTINUOUS2
 70
     0
  3
Solid Line
 72
    65
 73
     0
 40
0.0
  0
ENDTAB
  0
TABLE
  2
LAYER
 70
     2
  0
LAYER
  2
0
 70
     0
 62
     7
  6
CONTINUOUS
  0
LAYER
  2
LAYER_1
 70
     0
 62
    18
  6
CONTINUOUS
  0
ENDTAB
  0
TABLE
  2
STYLE
 70
     1
  0
STYLE
  2
STANDARD
 70
     0
 40
0.0
 41
1.0
 50
0.0
 71
     0
 42
0.2
  3
txt
  4

  0
ENDTAB
  0
TABLE
  2
VIEW
 70
     0
  0
ENDTAB
  0
TABLE
  2
UCS
 70
     0
  0
ENDTAB
  0
TABLE
  2
APPID
 70
     1
  0
APPID
  2
ACAD
 70
     0
  0
ENDTAB
  0
TABLE
  2
DIMSTYLE
 70
     1
  0
DIMSTYLE
  2
STANDARD
 70
     0
  3

  4

  5

  6

  7

 40
1.0
 41
0.18
 42
0.0625
 43
0.38
 44
0.18
 45
0.0
 46
0.0
 47
0.0
 48
0.0
140
0.18
141
0.09
142
0.0
143
25.4
144
1.0
145
0.0
146
1.0
147
0.09
 71
     0
 72
     0
 73
     1
 74
     1
 75
     0
 76
     0
 77
     0
 78
     0
170
     0
171
     2
172
     0
173
     0
174
     0
175
     0
176
     0
177
     0
178
     0
  0
ENDTAB
  0
ENDSEC
  0
SECTION
  2
BLOCKS
  0
BLOCK
  8
0
  2
$MODEL_SPACE
 70
     0
 10
0.0
 20
0.0
 30
0.0
  3
$MODEL_SPACE
  1

  0
ENDBLK
  5
21
  8
0
  0
BLOCK
 67
     1
  8
0
  2
$PAPER_SPACE
 70
     0
 10
0.0
 20
0.0
 30
0.0
  3
$PAPER_SPACE
  1

  0
ENDBLK
  5
1D
 67
     1
  8
0
  0
ENDSEC
  0
SECTION
  2
ENTITIES
  0
POLYLINE
  5
70
  8
LAYER_1
 66
     1
 10
0.0
 20
0.0
 30
0.0
 70
     1
  0
VERTEX
  5
A1
  8
LAYER_1
 10
1.332275334641203
 20
-13.56935503338689
 30
0.0
  0
VERTEX
  5
A2
  8
LAYER_1
 10
1.332275334641204
 20
-50.81935503338474
 30
0.0
  0
VERTEX
  5
A3
  8
LAYER_1
 10
1.332467811781852
 20
-50.83042233289893
 30
0.0
  0
VERTEX
  5
A4
  8
LAYER_1
 10
1.333040772928992
 20
-50.84152488396331
 30
0.0
  0
VERTEX
  5
A5
  8
LAYER_1
 10
1.33398751267042
 20
-50.85265598116568
 30
0.0
  0
VERTEX
  5
A6
  8
LAYER_1
 10
1.335301325593932
 20
-50.86380891909382
 30
0.0
  0
VERTEX
  5
A7
  8
LAYER_1
 10
1.336975506287323
 20
-50.87497699233555
 30
0.0
  0
VERTEX
  5
A8
  8
LAYER_1
 10
1.339003349338387
 20
-50.88615349547863
 30
0.0
  0
VERTEX
  5
A9
  8
LAYER_1
 10
1.341378149334922
 20
-50.8973317231109
 30
0.0
  0
VERTEX
  5
AA
  8
LAYER_1
 10
1.344093200864722
 20
-50.90850496982011
 30
0.0
  0
VERTEX
  5
AB
  8
LAYER_1
 10
1.347141798515582
 20
-50.9196665301941
 30
0.0
  0
VERTEX
  5
AC
  8
LAYER_1
 10
1.350517236875299
 20
-50.93080969882063
 30
0.0
  0
VERTEX
  5
AD
  8
LAYER_1
 10
1.354212810531667
 20
-50.94192777028752
 30
0.0
  0
VERTEX
  5
AE
  8
LAYER_1
 10
1.358221814072482
 20
-50.95301403918254
 30
0.0
  0
VERTEX
  5
AF
  8
LAYER_1
 10
1.367153289158635
 20
-50.9750643476082
 30
0.0
  0
VERTEX
  5
B0
  8
LAYER_1
 10
1.377258018836122
 20
-50.99690698079999
 30
0.0
  0
VERTEX
  5
B1
  8
LAYER_1
 10
1.388482359807305
 20
-51.01848829546026
 30
0.0
  0
VERTEX
  5
B2
  8
LAYER_1
 10
1.400772668774549
 20
-51.03975464829138
 30
0.0
  0
VERTEX
  5
B3
  8
LAYER_1
 10
1.414075302440218
 20
-51.06065239599572
 30
0.0
  0
VERTEX
  5
B4
  8
LAYER_1
 10
1.428336617506674
 20
-51.08112789527563
 30
0.0
  0
VERTEX
  5
B5
  8
LAYER_1
 10
1.443502970676282
 20
-51.10112750283348
 30
0.0
  0
VERTEX
  5
B6
  8
LAYER_1
 10
1.459520718651405
 20
-51.12059757537163
 30
0.0
  0
VERTEX
  5
B7
  8
LAYER_1
 10
1.476336218134407
 20
-51.13948446959245
 30
0.0
  0
VERTEX
  5
B8
  8
LAYER_1
 10
1.49389582582765
 20
-51.1577345421983
 30
0.0
  0
VERTEX
  5
B9
  8
LAYER_1
 10
1.5121458984335
 20
-51.17529414989154
 30
0.0
  0
VERTEX
  5
BA
  8
LAYER_1
 10
1.531032792654319
 20
-51.19210964937454
 30
0.0
  0
VERTEX
  5
BB
  8
LAYER_1
 10
1.550502865192472
 20
-51.20812739734966
 30
0.0
  0
VERTEX
  5
BC
  8
LAYER_1
 10
1.570502472750321
 20
-51.22329375051927
 30
0.0
  0
VERTEX
  5
BD
  8
LAYER_1
 10
1.59097797203023
 20
-51.23755506558573
 30
0.0
  0
VERTEX
  5
BE
  8
LAYER_1
 10
1.611875719734564
 20
-51.25085769925139
 30
0.0
  0
VERTEX
  5
BF
  8
LAYER_1
 10
1.633142072565684
 20
-51.26314800821864
 30
0.0
  0
VERTEX
  5
C0
  8
LAYER_1
 10
1.654723387225956
 20
-51.27437234918982
 30
0.0
  0
VERTEX
  5
C1
  8
LAYER_1
 10
1.676566020417743
 20
-51.2844770788673
 30
0.0
  0
VERTEX
  5
C2
  8
LAYER_1
 10
1.698616328843408
 20
-51.29340855395345
 30
0.0
  0
VERTEX
  5
C3
  8
LAYER_1
 10
1.709702597738433
 20
-51.29741755749427
 30
0.0
  0
VERTEX
  5
C4
  8
LAYER_1
 10
1.720820669205315
 20
-51.30111313115064
 30
0.0
  0
VERTEX
  5
C5
  8
LAYER_1
 10
1.731963837831848
 20
-51.30448856951036
 30
0.0
  0
VERTEX
  5
C6
  8
LAYER_1
 10
1.743125398205827
 20
-51.30753716716122
 30
0.0
  0
VERTEX
  5
C7
  8
LAYER_1
 10
1.754298644915049
 20
-51.31025221869102
 30
0.0
  0
VERTEX
  5
C8
  8
LAYER_1
 10
1.765476872547309
 20
-51.31262701868756
 30
0.0
  0
VERTEX
  5
C9
  8
LAYER_1
 10
1.776653375690401
 20
-51.31465486173862
 30
0.0
  0
VERTEX
  5
CA
  8
LAYER_1
 10
1.787821448932123
 20
-51.31632904243201
 30
0.0
  0
VERTEX
  5
CB
  8
LAYER_1
 10
1.798974386860269
 20
-51.31764285535552
 30
0.0
  0
VERTEX
  5
CC
  8
LAYER_1
 10
1.810105484062634
 20
-51.31858959509695
 30
0.0
  0
VERTEX
  5
CD
  8
LAYER_1
 10
1.821208035127014
 20
-51.31916255624409
 30
0.0
  0
VERTEX
  5
CE
  8
LAYER_1
 10
1.832275334641204
 20
-51.31935503338474
 30
0.0
  0
VERTEX
  5
CF
  8
LAYER_1
 10
3.832275334641206
 20
-51.31935503338474
 30
0.0
  0
VERTEX
  5
D0
  8
LAYER_1
 10
3.863266800445366
 20
-51.31910353261753
 30
0.0
  0
VERTEX
  5
D1
  8
LAYER_1
 10
3.894463188579946
 20
-51.31834210450765
 30
0.0
  0
VERTEX
  5
D2
  8
LAYER_1
 10
3.925833073968006
 20
-51.31706036034269
 30
0.0
  0
VERTEX
  5
D3
  8
LAYER_1
 10
3.957345031532606
 20
-51.31524791141028
 30
0.0
  0
VERTEX
  5
D4
  8
LAYER_1
 10
3.988967636196805
 20
-51.31289436899801
 30
0.0
  0
VERTEX
  5
D5
  8
LAYER_1
 10
4.020669462883665
 20
-51.30998934439347
 30
0.0
  0
VERTEX
  5
D6
  8
LAYER_1
 10
4.052419086516245
 20
-51.30652244888428
 30
0.0
  0
VERTEX
  5
D7
  8
LAYER_1
 10
4.084185082017607
 20
-51.30248329375804
 30
0.0
  0
VERTEX
  5
D8
  8
LAYER_1
 10
4.115936024310809
 20
-51.29786149030237
 30
0.0
  0
VERTEX
  5
D9
  8
LAYER_1
 10
4.147640488318913
 20
-51.29264664980484
 30
0.0
  0
VERTEX
  5
DA
  8
LAYER_1
 10
4.179267048964978
 20
-51.28682838355309
 30
0.0
  0
VERTEX
  5
DB
  8
LAYER_1
 10
4.210784281172065
 20
-51.28039630283469
 30
0.0
  0
VERTEX
  5
DC
  8
LAYER_1
 10
4.242160759863236
 20
-51.27334001893728
 30
0.0
  0
VERTEX
  5
DD
  8
LAYER_1
 10
4.273365059961547
 20
-51.26564914314844
 30
0.0
  0
VERTEX
  5
DE
  8
LAYER_1
 10
4.304365756390062
 20
-51.25731328675577
 30
0.0
  0
VERTEX
  5
DF
  8
LAYER_1
 10
4.335131424071839
 20
-51.24832206104689
 30
0.0
  0
VERTEX
  5
E0
  8
LAYER_1
 10
4.365630637929939
 20
-51.23866507730941
 30
0.0
  0
VERTEX
  5
E1
  8
LAYER_1
 10
4.395831972887424
 20
-51.22833194683091
 30
0.0
  0
VERTEX
  5
E2
  8
LAYER_1
 10
4.425704003867352
 20
-51.21731228089902
 30
0.0
  0
VERTEX
  5
E3
  8
LAYER_1
 10
4.455215305792784
 20
-51.20559569080133
 30
0.0
  0
VERTEX
  5
E4
  8
LAYER_1
 10
4.484334453586779
 20
-51.19317178782544
 30
0.0
  0
VERTEX
  5
E5
  8
LAYER_1
 10
4.5130300221724
 20
-51.18003018325896
 30
0.0
  0
VERTEX
  5
E6
  8
LAYER_1
 10
4.541270586472706
 20
-51.16616048838951
 30
0.0
  0
VERTEX
  5
E7
  8
LAYER_1
 10
4.569024721410756
 20
-51.15155231450466
 30
0.0
  0
VERTEX
  5
E8
  8
LAYER_1
 10
4.596261001909612
 20
-51.13619527289204
 30
0.0
  0
VERTEX
  5
E9
  8
LAYER_1
 10
4.622948002892333
 20
-51.12007897483925
 30
0.0
  0
VERTEX
  5
EA
  8
LAYER_1
 10
4.649054299281978
 20
-51.10319303163389
 30
0.0
  0
VERTEX
  5
EB
  8
LAYER_1
 10
4.674548466001612
 20
-51.08552705456358
 30
0.0
  0
VERTEX
  5
EC
  8
LAYER_1
 10
4.69939907797429
 20
-51.0670706549159
 30
0.0
  0
VERTEX
  5
ED
  8
LAYER_1
 10
4.723574710123076
 20
-51.04781344397846
 30
0.0
  0
VERTEX
  5
EE
  8
LAYER_1
 10
4.747043937371028
 20
-51.02774503303887
 30
0.0
  0
VERTEX
  5
EF
  8
LAYER_1
 10
4.769775334641208
 20
-51.00685503338474
 30
0.0
  0
VERTEX
  5
F0
  8
LAYER_1
 10
8.769775334641269
 20
-47.19435503338467
 30
0.0
  0
VERTEX
  5
F1
  8
LAYER_1
 10
8.799320435956712
 20
-47.166460562007
 30
0.0
  0
VERTEX
  5
F2
  8
LAYER_1
 10
8.82972197946825
 20
-47.13844329741784
 30
0.0
  0
VERTEX
  5
F3
  8
LAYER_1
 10
8.860956760381985
 20
-47.11056850163041
 30
0.0
  0
VERTEX
  5
F4
  8
LAYER_1
 10
8.89300157390403
 20
-47.083101436658
 30
0.0
  0
VERTEX
  5
F5
  8
LAYER_1
 10
8.925833215240488
 20
-47.05630736451385
 30
0.0
  0
VERTEX
  5
F6
  8
LAYER_1
 10
8.94253684484103
 20
-47.04324559513151
 30
0.0
  0
VERTEX
  5
F7
  8
LAYER_1
 10
8.959428479597467
 20
-47.03045154721121
 30
0.0
  0
VERTEX
  5
F8
  8
LAYER_1
 10
8.976505218910562
 20
-47.01795837850462
 30
0.0
  0
VERTEX
  5
F9
  8
LAYER_1
 10
8.993764162181076
 20
-47.00579924676337
 30
0.0
  0
VERTEX
  5
FA
  8
LAYER_1
 10
9.011202408809774
 20
-46.99400730973913
 30
0.0
  0
VERTEX
  5
FB
  8
LAYER_1
 10
9.028817058197419
 20
-46.98261572518356
 30
0.0
  0
VERTEX
  5
FC
  8
LAYER_1
 10
9.046605209744774
 20
-46.97165765084832
 30
0.0
  0
VERTEX
  5
FD
  8
LAYER_1
 10
9.064563962852604
 20
-46.96116624448506
 30
0.0
  0
VERTEX
  5
FE
  8
LAYER_1
 10
9.082690416921672
 20
-46.95117466384544
 30
0.0
  0
VERTEX
  5
FF
  8
LAYER_1
 10
9.100981671352741
 20
-46.94171606668111
 30
0.0
  0
VERTEX
  5
100
  8
LAYER_1
 10
9.119434825546573
 20
-46.93282361074374
 30
0.0
  0
VERTEX
  5
101
  8
LAYER_1
 10
9.138046978903933
 20
-46.92453045378498
 30
0.0
  0
VERTEX
  5
102
  8
LAYER_1
 10
9.156815230825583
 20
-46.91686975355649
 30
0.0
  0
VERTEX
  5
103
  8
LAYER_1
 10
9.175736680712289
 20
-46.90987466780993
 30
0.0
  0
VERTEX
  5
104
  8
LAYER_1
 10
9.194808427964812
 20
-46.90357835429695
 30
0.0
  0
VERTEX
  5
105
  8
LAYER_1
 10
9.214027571983916
 20
-46.89801397076922
 30
0.0
  0
VERTEX
  5
106
  8
LAYER_1
 10
9.233391212170364
 20
-46.89321467497838
 30
0.0
  0
VERTEX
  5
107
  8
LAYER_1
 10
9.25289644792492
 20
-46.8892136246761
 30
0.0
  0
VERTEX
  5
108
  8
LAYER_1
 10
9.272540378648346
 20
-46.88604397761404
 30
0.0
  0
VERTEX
  5
109
  8
LAYER_1
 10
9.292320103741407
 20
-46.88373889154384
 30
0.0
  0
VERTEX
  5
10A
  8
LAYER_1
 10
9.312232722604866
 20
-46.88233152421717
 30
0.0
  0
VERTEX
  5
10B
  8
LAYER_1
 10
9.332275334639489
 20
-46.88185503338568
 30
0.0
  0
VERTEX
  5
10C
  8
LAYER_1
 10
27.51977533465039
 20
-46.8818550333832
 30
0.0
  0
VERTEX
  5
10D
  8
LAYER_1
 10
27.54353000048908
 20
-46.88213626424931
 30
0.0
  0
VERTEX
  5
10E
  8
LAYER_1
 10
27.56757049938287
 20
-46.88298304651416
 30
0.0
  0
VERTEX
  5
10F
  8
LAYER_1
 10
27.59185360098856
 20
-46.88440001467744
 30
0.0
  0
VERTEX
  5
110
  8
LAYER_1
 10
27.61633607496297
 20
-46.88639180323884
 30
0.0
  0
VERTEX
  5
111
  8
LAYER_1
 10
27.64097469096292
 20
-46.88896304669806
 30
0.0
  0
VERTEX
  5
112
  8
LAYER_1
 10
27.66572621864524
 20
-46.89211837955482
 30
0.0
  0
VERTEX
  5
113
  8
LAYER_1
 10
27.69054742766673
 20
-46.8958624363088
 30
0.0
  0
VERTEX
  5
114
  8
LAYER_1
 10
27.71539508768422
 20
-46.90019985145972
 30
0.0
  0
VERTEX
  5
115
  8
LAYER_1
 10
27.74022596835452
 20
-46.90513525950728
 30
0.0
  0
VERTEX
  5
116
  8
LAYER_1
 10
27.76499683933447
 20
-46.91067329495117
 30
0.0
  0
VERTEX
  5
117
  8
LAYER_1
 10
27.78966447028085
 20
-46.91681859229109
 30
0.0
  0
VERTEX
  5
118
  8
LAYER_1
 10
27.81418563085052
 20
-46.92357578602676
 30
0.0
  0
VERTEX
  5
119
  8
LAYER_1
 10
27.83851709070027
 20
-46.93094951065787
 30
0.0
  0
VERTEX
  5
11A
  8
LAYER_1
 10
27.86261561948694
 20
-46.93894440068413
 30
0.0
  0
VERTEX
  5
11B
  8
LAYER_1
 10
27.88643798686733
 20
-46.94756509060522
 30
0.0
  0
VERTEX
  5
11C
  8
LAYER_1
 10
27.90994096249826
 20
-46.95681621492088
 30
0.0
  0
VERTEX
  5
11D
  8
LAYER_1
 10
27.93308131603656
 20
-46.96670240813078
 30
0.0
  0
VERTEX
  5
11E
  8
LAYER_1
 10
27.95581581713905
 20
-46.97722830473462
 30
0.0
  0
VERTEX
  5
11F
  8
LAYER_1
 10
27.97810123546254
 20
-46.98839853923212
 30
0.0
  0
VERTEX
  5
120
  8
LAYER_1
 10
27.99989434066384
 20
-47.00021774612297
 30
0.0
  0
VERTEX
  5
121
  8
LAYER_1
 10
28.02115190239979
 20
-47.01269055990689
 30
0.0
  0
VERTEX
  5
122
  8
LAYER_1
 10
28.04183069032719
 20
-47.02582161508356
 30
0.0
  0
VERTEX
  5
123
  8
LAYER_1
 10
28.06188747410287
 20
-47.03961554615269
 30
0.0
  0
VERTEX
  5
124
  8
LAYER_1
 10
28.08127902338364
 20
-47.05407698761397
 30
0.0
  0
VERTEX
  5
125
  8
LAYER_1
 10
28.09996210782633
 20
-47.06921057396713
 30
0.0
  0
VERTEX
  5
126
  8
LAYER_1
 10
28.11789349708775
 20
-47.08502093971185
 30
0.0
  0
VERTEX
  5
127
  8
LAYER_1
 10
28.13502996082472
 20
-47.10151271934783
 30
0.0
  0
VERTEX
  5
128
  8
LAYER_1
 10
28.15132826869406
 20
-47.11869054737478
 30
0.0
  0
VERTEX
  5
129
  8
LAYER_1
 10
28.16674519035259
 20
-47.13655905829241
 30
0.0
  0
VERTEX
  5
12A
  8
LAYER_1
 10
28.18123749545713
 20
-47.1551228866004
 30
0.0
  0
VERTEX
  5
12B
  8
LAYER_1
 10
28.1881234073194
 20
-47.16466699305694
 30
0.0
  0
VERTEX
  5
12C
  8
LAYER_1
 10
28.19476195366448
 20
-47.17438666679847
 30
0.0
  0
VERTEX
  5
12D
  8
LAYER_1
 10
28.20114773069948
 20
-47.18428248713743
 30
0.0
  0
VERTEX
  5
12E
  8
LAYER_1
 10
28.20727533463149
 20
-47.19435503338631
 30
0.0
  0
VERTEX
  5
12F
  8
LAYER_1
 10
30.45727533464169
 20
-51.00685503338475
 30
0.0
  0
VERTEX
  5
130
  8
LAYER_1
 10
30.46693981377765
 20
-51.02264210879967
 30
0.0
  0
VERTEX
  5
131
  8
LAYER_1
 10
30.47719169913306
 20
-51.03825541730772
 30
0.0
  0
VERTEX
  5
132
  8
LAYER_1
 10
30.48801070505928
 20
-51.05367348753241
 30
0.0
  0
VERTEX
  5
133
  8
LAYER_1
 10
30.49937654590769
 20
-51.06887484809722
 30
0.0
  0
VERTEX
  5
134
  8
LAYER_1
 10
30.51126893602965
 20
-51.08383802762565
 30
0.0
  0
VERTEX
  5
135
  8
LAYER_1
 10
30.52366758977655
 20
-51.09854155474117
 30
0.0
  0
VERTEX
  5
136
  8
LAYER_1
 10
30.53655222149975
 20
-51.11296395806732
 30
0.0
  0
VERTEX
  5
137
  8
LAYER_1
 10
30.54990254555063
 20
-51.12708376622756
 30
0.0
  0
VERTEX
  5
138
  8
LAYER_1
 10
30.56369827628055
 20
-51.14087950784538
 30
0.0
  0
VERTEX
  5
139
  8
LAYER_1
 10
30.5779191280409
 20
-51.15432971154429
 30
0.0
  0
VERTEX
  5
13A
  8
LAYER_1
 10
30.59254481518303
 20
-51.16741290594779
 30
0.0
  0
VERTEX
  5
13B
  8
LAYER_1
 10
30.60755505205832
 20
-51.18010761967935
 30
0.0
  0
VERTEX
  5
13C
  8
LAYER_1
 10
30.62292955301815
 20
-51.19239238136247
 30
0.0
  0
VERTEX
  5
13D
  8
LAYER_1
 10
30.63864803241388
 20
-51.20424571962064
 30
0.0
  0
VERTEX
  5
13E
  8
LAYER_1
 10
30.6546902045969
 20
-51.21564616307737
 30
0.0
  0
VERTEX
  5
13F
  8
LAYER_1
 10
30.67103578391856
 20
-51.22657224035613
 30
0.0
  0
VERTEX
  5
140
  8
LAYER_1
 10
30.68766448473025
 20
-51.23700248008043
 30
0.0
  0
VERTEX
  5
141
  8
LAYER_1
 10
30.70455602138334
 20
-51.24691541087377
 30
0.0
  0
VERTEX
  5
142
  8
LAYER_1
 10
30.72169010822919
 20
-51.25628956135962
 30
0.0
  0
VERTEX
  5
143
  8
LAYER_1
 10
30.73904645961917
 20
-51.2651034601615
 30
0.0
  0
VERTEX
  5
144
  8
LAYER_1
 10
30.75660478990467
 20
-51.27333563590288
 30
0.0
  0
VERTEX
  5
145
  8
LAYER_1
 10
30.77434481343705
 20
-51.28096461720726
 30
0.0
  0
VERTEX
  5
146
  8
LAYER_1
 10
30.79224624456769
 20
-51.28796893269813
 30
0.0
  0
VERTEX
  5
147
  8
LAYER_1
 10
30.81028879764796
 20
-51.29432711099901
 30
0.0
  0
VERTEX
  5
148
  8
LAYER_1
 10
30.82845218702922
 20
-51.30001768073336
 30
0.0
  0
VERTEX
  5
149
  8
LAYER_1
 10
30.84671612706286
 20
-51.30501917052469
 30
0.0
  0
VERTEX
  5
14A
  8
LAYER_1
 10
30.86506033210024
 20
-51.30931010899648
 30
0.0
  0
VERTEX
  5
14B
  8
LAYER_1
 10
30.88346451649273
 20
-51.31286902477224
 30
0.0
  0
VERTEX
  5
14C
  8
LAYER_1
 10
30.9019083945917
 20
-51.31567444647545
 30
0.0
  0
VERTEX
  5
14D
  8
LAYER_1
 10
30.92037168074854
 20
-51.3177049027296
 30
0.0
  0
VERTEX
  5
14E
  8
LAYER_1
 10
30.93883408931461
 20
-51.3189389221582
 30
0.0
  0
VERTEX
  5
14F
  8
LAYER_1
 10
30.95727533464128
 20
-51.31935503338474
 30
0.0
  0
VERTEX
  5
150
  8
LAYER_1
 10
66.01977533464603
 20
-51.31935503338474
 30
0.0
  0
VERTEX
  5
151
  8
LAYER_1
 10
66.02738118243457
 20
-51.31920005558553
 30
0.0
  0
VERTEX
  5
152
  8
LAYER_1
 10
66.0349444425701
 20
-51.31873914917614
 30
0.0
  0
VERTEX
  5
153
  8
LAYER_1
 10
66.04993471125408
 20
-51.31692371245629
 30
0.0
  0
VERTEX
  5
154
  8
LAYER_1
 10
66.06472916344181
 20
-51.3139570470841
 30
0.0
  0
VERTEX
  5
155
  8
LAYER_1
 10
66.07931082187713
 20
-51.30988747691852
 30
0.0
  0
VERTEX
  5
156
  8
LAYER_1
 10
66.09366270930391
 20
-51.30476332581844
 30
0.0
  0
VERTEX
  5
157
  8
LAYER_1
 10
66.10776784846601
 20
-51.29863291764281
 30
0.0
  0
VERTEX
  5
158
  8
LAYER_1
 10
66.12160926210727
 20
-51.29154457625053
 30
0.0
  0
VERTEX
  5
159
  8
LAYER_1
 10
66.13516997297155
 20
-51.28354662550055
 30
0.0
  0
VERTEX
  5
15A
  8
LAYER_1
 10
66.14843300380271
 20
-51.27468738925177
 30
0.0
  0
VERTEX
  5
15B
  8
LAYER_1
 10
66.1613813773446
 20
-51.26501519136311
 30
0.0
  0
VERTEX
  5
15C
  8
LAYER_1
 10
66.17399811634107
 20
-51.2545783556935
 30
0.0
  0
VERTEX
  5
15D
  8
LAYER_1
 10
66.18626624353595
 20
-51.24342520610188
 30
0.0
  0
VERTEX
  5
15E
  8
LAYER_1
 10
66.19816878167315
 20
-51.23160406644715
 30
0.0
  0
VERTEX
  5
15F
  8
LAYER_1
 10
66.20968875349647
 20
-51.21916326058823
 30
0.0
  0
VERTEX
  5
160
  8
LAYER_1
 10
66.22080918174979
 20
-51.20615111238406
 30
0.0
  0
VERTEX
  5
161
  8
LAYER_1
 10
66.23151308917697
 20
-51.19261594569356
 30
0.0
  0
VERTEX
  5
162
  8
LAYER_1
 10
66.24178349852185
 20
-51.17860608437564
 30
0.0
  0
VERTEX
  5
163
  8
LAYER_1
 10
66.25160343252828
 20
-51.16416985228923
 30
0.0
  0
VERTEX
  5
164
  8
LAYER_1
 10
66.26095591394014
 20
-51.14935557329326
 30
0.0
  0
VERTEX
  5
165
  8
LAYER_1
 10
66.26982396550123
 20
-51.13421157124664
 30
0.0
  0
VERTEX
  5
166
  8
LAYER_1
 10
66.27819060995546
 20
-51.11878617000831
 30
0.0
  0
VERTEX
  5
167
  8
LAYER_1
 10
66.28603887004664
 20
-51.10312769343716
 30
0.0
  0
VERTEX
  5
168
  8
LAYER_1
 10
66.29335176851868
 20
-51.08728446539214
 30
0.0
  0
VERTEX
  5
169
  8
LAYER_1
 10
66.30011232811538
 20
-51.07130480973216
 30
0.0
  0
VERTEX
  5
16A
  8
LAYER_1
 10
66.3063035715806
 20
-51.05523705031617
 30
0.0
  0
VERTEX
  5
16B
  8
LAYER_1
 10
66.31190852165821
 20
-51.03912951100305
 30
0.0
  0
VERTEX
  5
16C
  8
LAYER_1
 10
66.31691020109207
 20
-51.02303051565175
 30
0.0
  0
VERTEX
  5
16D
  8
LAYER_1
 10
66.32129163262601
 20
-51.00698838812119
 30
0.0
  0
VERTEX
  5
16E
  8
LAYER_1
 10
66.32503583900393
 20
-50.99105145227028
 30
0.0
  0
VERTEX
  5
16F
  8
LAYER_1
 10
66.32812584296963
 20
-50.97526803195796
 30
0.0
  0
VERTEX
  5
170
  8
LAYER_1
 10
66.33054466726698
 20
-50.95968645104314
 30
0.0
  0
VERTEX
  5
171
  8
LAYER_1
 10
66.33227533463983
 20
-50.94435503338475
 30
0.0
  0
VERTEX
  5
172
  8
LAYER_1
 10
66.9572753346553
 20
-44.06935503338384
 30
0.0
  0
VERTEX
  5
173
  8
LAYER_1
 10
66.95814840268152
 20
-44.05697033964044
 30
0.0
  0
VERTEX
  5
174
  8
LAYER_1
 10
66.95852335707163
 20
-44.04457494125236
 30
0.0
  0
VERTEX
  5
175
  8
LAYER_1
 10
66.95840945811597
 20
-44.03217487942936
 30
0.0
  0
VERTEX
  5
176
  8
LAYER_1
 10
66.9578159661049
 20
-44.0197761953812
 30
0.0
  0
VERTEX
  5
177
  8
LAYER_1
 10
66.95675214132876
 20
-44.00738493031763
 30
0.0
  0
VERTEX
  5
178
  8
LAYER_1
 10
66.95522724407786
 20
-43.9950071254484
 30
0.0
  0
VERTEX
  5
179
  8
LAYER_1
 10
66.95325053464256
 20
-43.98264882198328
 30
0.0
  0
VERTEX
  5
17A
  8
LAYER_1
 10
66.95083127331317
 20
-43.97031606113201
 30
0.0
  0
VERTEX
  5
17B
  8
LAYER_1
 10
66.94797872038005
 20
-43.95801488410436
 30
0.0
  0
VERTEX
  5
17C
  8
LAYER_1
 10
66.94470213613354
 20
-43.94575133211008
 30
0.0
  0
VERTEX
  5
17D
  8
LAYER_1
 10
66.94101078086398
 20
-43.93353144635892
 30
0.0
  0
VERTEX
  5
17E
  8
LAYER_1
 10
66.93691391486168
 20
-43.92136126806064
 30
0.0
  0
VERTEX
  5
17F
  8
LAYER_1
 10
66.932420798417
 20
-43.90924683842499
 30
0.0
  0
VERTEX
  5
180
  8
LAYER_1
 10
66.92754069182028
 20
-43.89719419866174
 30
0.0
  0
VERTEX
  5
181
  8
LAYER_1
 10
66.92228285536186
 20
-43.88520938998063
 30
0.0
  0
VERTEX
  5
182
  8
LAYER_1
 10
66.91665654933206
 20
-43.87329845359142
 30
0.0
  0
VERTEX
  5
183
  8
LAYER_1
 10
66.91067103402123
 20
-43.86146743070386
 30
0.0
  0
VERTEX
  5
184
  8
LAYER_1
 10
66.9043355697197
 20
-43.84972236252772
 30
0.0
  0
VERTEX
  5
185
  8
LAYER_1
 10
66.89765941671783
 20
-43.83806929027275
 30
0.0
  0
VERTEX
  5
186
  8
LAYER_1
 10
66.89065183530593
 20
-43.82651425514869
 30
0.0
  0
VERTEX
  5
187
  8
LAYER_1
 10
66.88332208577435
 20
-43.81506329836532
 30
0.0
  0
VERTEX
  5
188
  8
LAYER_1
 10
66.8756794284134
 20
-43.80372246113238
 30
0.0
  0
VERTEX
  5
189
  8
LAYER_1
 10
66.86773312351347
 20
-43.79249778465963
 30
0.0
  0
VERTEX
  5
18A
  8
LAYER_1
 10
66.85949243136487
 20
-43.78139531015682
 30
0.0
  0
VERTEX
  5
18B
  8
LAYER_1
 10
66.84216492648301
 20
-43.75958113190006
 30
0.0
  0
VERTEX
  5
18C
  8
LAYER_1
 10
66.82377099609052
 20
-43.73832825604015
 30
0.0
  0
VERTEX
  5
18D
  8
LAYER_1
 10
66.80438472251011
 20
-43.71768501225511
 30
0.0
  0
VERTEX
  5
18E
  8
LAYER_1
 10
66.78408018806448
 20
-43.697699730223
 30
0.0
  0
VERTEX
  5
18F
  8
LAYER_1
 10
66.76293147507633
 20
-43.67842073962186
 30
0.0
  0
VERTEX
  5
190
  8
LAYER_1
 10
66.74101266586838
 20
-43.65989637012974
 30
0.0
  0
VERTEX
  5
191
  8
LAYER_1
 10
66.71839784276331
 20
-43.64217495142469
 30
0.0
  0
VERTEX
  5
192
  8
LAYER_1
 10
66.69516108808381
 20
-43.62530481318473
 30
0.0
  0
VERTEX
  5
193
  8
LAYER_1
 10
66.67137648415262
 20
-43.60933428508792
 30
0.0
  0
VERTEX
  5
194
  8
LAYER_1
 10
66.64711811329241
 20
-43.5943116968123
 30
0.0
  0
VERTEX
  5
195
  8
LAYER_1
 10
66.62246005782589
 20
-43.5802853780359
 30
0.0
  0
VERTEX
  5
196
  8
LAYER_1
 10
66.59747640007575
 20
-43.56730365843678
 30
0.0
  0
VERTEX
  5
197
  8
LAYER_1
 10
66.57224122236471
 20
-43.55541486769299
 30
0.0
  0
VERTEX
  5
198
  8
LAYER_1
 10
66.54682860701547
 20
-43.54466733548254
 30
0.0
  0
VERTEX
  5
199
  8
LAYER_1
 10
66.52131263635073
 20
-43.53510939148352
 30
0.0
  0
VERTEX
  5
19A
  8
LAYER_1
 10
66.50853904350087
 20
-43.53079161808766
 30
0.0
  0
VERTEX
  5
19B
  8
LAYER_1
 10
66.49576739269318
 20
-43.52678936537393
 30
0.0
  0
VERTEX
  5
19C
  8
LAYER_1
 10
66.48300694421795
 20
-43.52310867455207
 30
0.0
  0
VERTEX
  5
19D
  8
LAYER_1
 10
66.47026695836553
 20
-43.51975558683184
 30
0.0
  0
VERTEX
  5
19E
  8
LAYER_1
 10
66.45755669542626
 20
-43.516736143423
 30
0.0
  0
VERTEX
  5
19F
  8
LAYER_1
 10
66.44488541569049
 20
-43.51405638553529
 30
0.0
  0
VERTEX
  5
1A0
  8
LAYER_1
 10
66.43226237944853
 20
-43.51172235437848
 30
0.0
  0
VERTEX
  5
1A1
  8
LAYER_1
 10
66.41969684699075
 20
-43.50974009116231
 30
0.0
  0
VERTEX
  5
1A2
  8
LAYER_1
 10
66.40719807860746
 20
-43.50811563709655
 30
0.0
  0
VERTEX
  5
1A3
  8
LAYER_1
 10
66.39477533458901
 20
-43.50685503339096
 30
0.0
  0
VERTEX
  5
1A4
  8
LAYER_1
 10
54.8947753346438
 20
-42.50685503338506
 30
0.0
  0
VERTEX
  5
1A5
  8
LAYER_1
 10
54.87372805566798
 20
-42.50471320791342
 30
0.0
  0
VERTEX
  5
1A6
  8
LAYER_1
 10
54.85254389434992
 20
-42.50191742346916
 30
0.0
  0
VERTEX
  5
1A7
  8
LAYER_1
 10
54.83129549773362
 20
-42.49844579484562
 30
0.0
  0
VERTEX
  5
1A8
  8
LAYER_1
 10
54.81005551286309
 20
-42.49427643683614
 30
0.0
  0
VERTEX
  5
1A9
  8
LAYER_1
 10
54.78889658678233
 20
-42.48938746423404
 30
0.0
  0
VERTEX
  5
1AA
  8
LAYER_1
 10
54.76789136653534
 20
-42.48375699183265
 30
0.0
  0
VERTEX
  5
1AB
  8
LAYER_1
 10
54.74711249916611
 20
-42.47736313442531
 30
0.0
  0
VERTEX
  5
1AC
  8
LAYER_1
 10
54.72663263171864
 20
-42.47018400680535
 30
0.0
  0
VERTEX
  5
1AD
  8
LAYER_1
 10
54.70652441123696
 20
-42.46219772376611
 30
0.0
  0
VERTEX
  5
1AE
  8
LAYER_1
 10
54.68686048476506
 20
-42.4533824001009
 30
0.0
  0
VERTEX
  5
1AF
  8
LAYER_1
 10
54.66771349934693
 20
-42.44371615060307
 30
0.0
  0
VERTEX
  5
1B0
  8
LAYER_1
 10
54.64915610202657
 20
-42.43317709006595
 30
0.0
  0
VERTEX
  5
1B1
  8
LAYER_1
 10
54.63126093984799
 20
-42.42174333328286
 30
0.0
  0
VERTEX
  5
1B2
  8
LAYER_1
 10
54.62258439913813
 20
-42.415684104672
 30
0.0
  0
VERTEX
  5
1B3
  8
LAYER_1
 10
54.6141006598552
 20
-42.40939299504715
 30
0.0
  0
VERTEX
  5
1B4
  8
LAYER_1
 10
54.60581880287972
 20
-42.40286726875748
 30
0.0
  0
VERTEX
  5
1B5
  8
LAYER_1
 10
54.59774790909219
 20
-42.39610419015214
 30
0.0
  0
VERTEX
  5
1B6
  8
LAYER_1
 10
54.58989705937311
 20
-42.38910102358032
 30
0.0
  0
VERTEX
  5
1B7
  8
LAYER_1
 10
54.58227533460297
 20
-42.38185503339116
 30
0.0
  0
VERTEX
  5
1B8
  8
LAYER_1
 10
40.76977533456794
 20
-28.81935503342851
 30
0.0
  0
VERTEX
  5
1B9
  8
LAYER_1
 10
40.75901032930281
 20
-28.8090129127674
 30
0.0
  0
VERTEX
  5
1BA
  8
LAYER_1
 10
40.74794756159879
 20
-28.79883558411919
 30
0.0
  0
VERTEX
  5
1BB
  8
LAYER_1
 10
40.73659805370147
 20
-28.78883548922234
 30
0.0
  0
VERTEX
  5
1BC
  8
LAYER_1
 10
40.72497282785646
 20
-28.7790250698153
 30
0.0
  0
VERTEX
  5
1BD
  8
LAYER_1
 10
40.71308290630937
 20
-28.76941676763653
 30
0.0
  0
VERTEX
  5
1BE
  8
LAYER_1
 10
40.70093931130579
 20
-28.76002302442447
 30
0.0
  0
VERTEX
  5
1BF
  8
LAYER_1
 10
40.68855306509135
 20
-28.7508562819176
 30
0.0
  0
VERTEX
  5
1C0
  8
LAYER_1
 10
40.67593518991164
 20
-28.74192898185436
 30
0.0
  0
VERTEX
  5
1C1
  8
LAYER_1
 10
40.66309670801228
 20
-28.73325356597321
 30
0.0
  0
VERTEX
  5
1C2
  8
LAYER_1
 10
40.65004864163886
 20
-28.72484247601259
 30
0.0
  0
VERTEX
  5
1C3
  8
LAYER_1
 10
40.636802013037
 20
-28.71670815371098
 30
0.0
  0
VERTEX
  5
1C4
  8
LAYER_1
 10
40.6233678444523
 20
-28.70886304080683
 30
0.0
  0
VERTEX
  5
1C5
  8
LAYER_1
 10
40.60975715813038
 20
-28.70131957903858
 30
0.0
  0
VERTEX
  5
1C6
  8
LAYER_1
 10
40.59598097631682
 20
-28.6940902101447
 30
0.0
  0
VERTEX
  5
1C7
  8
LAYER_1
 10
40.58205032125724
 20
-28.68718737586363
 30
0.0
  0
VERTEX
  5
1C8
  8
LAYER_1
 10
40.56797621519726
 20
-28.68062351793385
 30
0.0
  0
VERTEX
  5
1C9
  8
LAYER_1
 10
40.55376968038247
 20
-28.67441107809379
 30
0.0
  0
VERTEX
  5
1CA
  8
LAYER_1
 10
40.53944173905849
 20
-28.66856249808192
 30
0.0
  0
VERTEX
  5
1CB
  8
LAYER_1
 10
40.5250034134709
 20
-28.66309021963669
 30
0.0
  0
VERTEX
  5
1CC
  8
LAYER_1
 10
40.51046572586534
 20
-28.65800668449655
 30
0.0
  0
VERTEX
  5
1CD
  8
LAYER_1
 10
40.49583969848739
 20
-28.65332433439996
 30
0.0
  0
VERTEX
  5
1CE
  8
LAYER_1
 10
40.48113635358268
 20
-28.64905561108538
 30
0.0
  0
VERTEX
  5
1CF
  8
LAYER_1
 10
40.46636671339679
 20
-28.64521295629126
 30
0.0
  0
VERTEX
  5
1D0
  8
LAYER_1
 10
40.45154180017536
 20
-28.64180881175606
 30
0.0
  0
VERTEX
  5
1D1
  8
LAYER_1
 10
40.43667263616398
 20
-28.63885561921824
 30
0.0
  0
VERTEX
  5
1D2
  8
LAYER_1
 10
40.42177024360824
 20
-28.63636582041624
 30
0.0
  0
VERTEX
  5
1D3
  8
LAYER_1
 10
40.40684564475376
 20
-28.63435185708852
 30
0.0
  0
VERTEX
  5
1D4
  8
LAYER_1
 10
40.39190986184615
 20
-28.63282617097354
 30
0.0
  0
VERTEX
  5
1D5
  8
LAYER_1
 10
40.37697391713101
 20
-28.63180120380975
 30
0.0
  0
VERTEX
  5
1D6
  8
LAYER_1
 10
40.36204883285397
 20
-28.63128939733561
 30
0.0
  0
VERTEX
  5
1D7
  8
LAYER_1
 10
40.3471456312606
 20
-28.63130319328958
 30
0.0
  0
VERTEX
  5
1D8
  8
LAYER_1
 10
40.33227533459654
 20
-28.6318550334101
 30
0.0
  0
VERTEX
  5
1D9
  8
LAYER_1
 10
39.20727533474427
 20
-28.69435503332454
 30
0.0
  0
VERTEX
  5
1DA
  8
LAYER_1
 10
38.76758634780224
 20
-28.68932882071946
 30
0.0
 42
-0.4142135623730951
  0
VERTEX
  5
1DB
  8
LAYER_1
 10
38.55258634780223
 20
-28.47432882071946
 30
0.0
 42
-0.4142135623730951
  0
VERTEX
  5
1DC
  8
LAYER_1
 10
38.76758634780224
 20
-28.25932882071946
 30
0.0
  0
VERTEX
  5
1DD
  8
LAYER_1
 10
38.76977533469857
 20
-28.25685503334968
 30
0.0
  0
VERTEX
  5
1DE
  8
LAYER_1
 10
36.45727533472427
 20
-13.06935503329744
 30
0.0
  0
VERTEX
  5
1DF
  8
LAYER_1
 10
1.832275334641238
 20
-13.0693550333826
 30
0.0
  0
VERTEX
  5
1E0
  8
LAYER_1
 10
1.821208035127002
 20
-13.06954751052328
 30
0.0
  0
VERTEX
  5
1E1
  8
LAYER_1
 10
1.810105484062578
 20
-13.07012047167045
 30
0.0
  0
VERTEX
  5
1E2
  8
LAYER_1
 10
1.798974386860172
 20
-13.07106721141191
 30
0.0
  0
VERTEX
  5
1E3
  8
LAYER_1
 10
1.787821448931989
 20
-13.07238102433546
 30
0.0
  0
VERTEX
  5
1E4
  8
LAYER_1
 10
1.776653375690232
 20
-13.07405520502889
 30
0.0
  0
VERTEX
  5
1E5
  8
LAYER_1
 10
1.765476872547107
 20
-13.07608304808
 30
0.0
  0
VERTEX
  5
1E6
  8
LAYER_1
 10
1.754298644914817
 20
-13.07845784807658
 30
0.0
  0
VERTEX
  5
1E7
  8
LAYER_1
 10
1.743125398205567
 20
-13.08117289960643
 30
0.0
  0
VERTEX
  5
1E8
  8
LAYER_1
 10
1.731963837831562
 20
-13.08422149725734
 30
0.0
  0
VERTEX
  5
1E9
  8
LAYER_1
 10
1.720820669205006
 20
-13.08759693561711
 30
0.0
  0
VERTEX
  5
1EA
  8
LAYER_1
 10
1.709702597738104
 20
-13.09129250927353
 30
0.0
  0
VERTEX
  5
1EB
  8
LAYER_1
 10
1.69861632884306
 20
-13.0953015128144
 30
0.0
  0
VERTEX
  5
1EC
  8
LAYER_1
 10
1.676566020417364
 20
-13.10423298790068
 30
0.0
  0
VERTEX
  5
1ED
  8
LAYER_1
 10
1.654723387225555
 20
-13.11433771757829
 30
0.0
  0
VERTEX
  5
1EE
  8
LAYER_1
 10
1.633142072565267
 20
-13.12556205854961
 30
0.0
  0
VERTEX
  5
1EF
  8
LAYER_1
 10
1.611875719734138
 20
-13.137852367517
 30
0.0
  0
VERTEX
  5
1F0
  8
LAYER_1
 10
1.590977972029802
 20
-13.15115500118281
 30
0.0
  0
VERTEX
  5
1F1
  8
LAYER_1
 10
1.570502472749896
 20
-13.16541631624942
 30
0.0
  0
VERTEX
  5
1F2
  8
LAYER_1
 10
1.550502865192055
 20
-13.18058266941918
 30
0.0
  0
VERTEX
  5
1F3
  8
LAYER_1
 10
1.531032792653916
 20
-13.19660041739446
 30
0.0
  0
VERTEX
  5
1F4
  8
LAYER_1
 10
1.512145898433114
 20
-13.21341591687762
 30
0.0
  0
VERTEX
  5
1F5
  8
LAYER_1
 10
1.493895825827285
 20
-13.23097552457103
 30
0.0
  0
VERTEX
  5
1F6
  8
LAYER_1
 10
1.476336218134064
 20
-13.24922559717704
 30
0.0
  0
VERTEX
  5
1F7
  8
LAYER_1
 10
1.459520718651089
 20
-13.26811249139803
 30
0.0
  0
VERTEX
  5
1F8
  8
LAYER_1
 10
1.443502970675994
 20
-13.28758256393634
 30
0.0
  0
VERTEX
  5
1F9
  8
LAYER_1
 10
1.428336617506415
 20
-13.30758217149436
 30
0.0
  0
VERTEX
  5
1FA
  8
LAYER_1
 10
1.414075302439989
 20
-13.32805767077443
 30
0.0
  0
VERTEX
  5
1FB
  8
LAYER_1
 10
1.400772668774351
 20
-13.34895541847892
 30
0.0
  0
VERTEX
  5
1FC
  8
LAYER_1
 10
1.388482359807137
 20
-13.3702217713102
 30
0.0
  0
VERTEX
  5
1FD
  8
LAYER_1
 10
1.377258018835982
 20
-13.39180308597063
 30
0.0
  0
VERTEX
  5
1FE
  8
LAYER_1
 10
1.367153289158523
 20
-13.41364571916256
 30
0.0
  0
VERTEX
  5
1FF
  8
LAYER_1
 10
1.358221814072397
 20
-13.43569602758837
 30
0.0
  0
VERTEX
  5
200
  8
LAYER_1
 10
1.354212810531594
 20
-13.44678229648347
 30
0.0
  0
VERTEX
  5
201
  8
LAYER_1
 10
1.350517236875237
 20
-13.45790036795042
 30
0.0
  0
VERTEX
  5
202
  8
LAYER_1
 10
1.347141798515531
 20
-13.46904353657702
 30
0.0
  0
VERTEX
  5
203
  8
LAYER_1
 10
1.34409320086468
 20
-13.48020509695106
 30
0.0
  0
VERTEX
  5
204
  8
LAYER_1
 10
1.341378149334889
 20
-13.49137834366035
 30
0.0
  0
VERTEX
  5
205
  8
LAYER_1
 10
1.339003349338363
 20
-13.50255657129267
 30
0.0
  0
VERTEX
  5
206
  8
LAYER_1
 10
1.336975506287305
 20
-13.51373307443582
 30
0.0
  0
VERTEX
  5
207
  8
LAYER_1
 10
1.33530132559392
 20
-13.5249011476776
 30
0.0
  0
VERTEX
  5
208
  8
LAYER_1
 10
1.333987512670413
 20
-13.5360540856058
 30
0.0
  0
VERTEX
  5
209
  8
LAYER_1
 10
1.333040772928988
 20
-13.54718518280822
 30
0.0
  0
VERTEX
  5
20A
  8
LAYER_1
 10
1.33246781178185
 20
-13.55828773387265
 30
0.0
  0
SEQEND
  5
4E4
  8
LAYER_1
  0
POLYLINE
  5
71
  8
LAYER_1
 66
     1
 10
0.0
 20
0.0
 30
0.0
 70
     1
  0
VERTEX
  5
20B
  8
LAYER_1
 10
71.5822753346412
 20
-51.31935503338474
 30
0.0
  0
VERTEX
  5
20C
  8
LAYER_1
 10
95.3322753346412
 20
-51.31935503338474
 30
0.0
  0
VERTEX
  5
20D
  8
LAYER_1
 10
95.3322753346412
 20
-15.06935503338474
 30
0.0
  0
VERTEX
  5
20E
  8
LAYER_1
 10
71.5822753346412
 20
-15.06935503338474
 30
0.0
  0
SEQEND
  5
4E5
  8
LAYER_1
  0
POLYLINE
  5
72
  8
LAYER_1
 66
     1
 10
0.0
 20
0.0
 30
0.0
 70
     1
  0
VERTEX
  5
20F
  8
LAYER_1
 10
72.8322753346412
 20
-49.75685503338474
 30
0.0
 42
0.4142135623730951
  0
VERTEX
  5
210
  8
LAYER_1
 10
72.6447753346412
 20
-49.94435503338474
 30
0.0
 42
0.4142135623730951
  0
VERTEX
  5
211
  8
LAYER_1
 10
72.8322753346412
 20
-50.13185503338474
 30
0.0
 42
0.4142135623730951
  0
VERTEX
  5
212
  8
LAYER_1
 10
73.0197753346412
 20
-49.94435503338474
 30
0.0
 42
0.4142135623730951
  0
SEQEND
  5
4E6
  8
LAYER_1
  0
POLYLINE
  5
73
  8
LAYER_1
 66
     1
 10
0.0
 20
0.0
 30
0.0
 70
     1
  0
VERTEX
  5
213
  8
LAYER_1
 10
72.8322753346412
 20
-16.25685503338474
 30
0.0
 42
0.4142135623730951
  0
VERTEX
  5
214
  8
LAYER_1
 10
72.6447753346412
 20
-16.44435503338474
 30
0.0
 42
0.4142135623730951
  0
VERTEX
  5
215
  8
LAYER_1
 10
72.8322753346412
 20
-16.63185503338474
 30
0.0
 42
0.4142135623730951
  0
VERTEX
  5
216
  8
LAYER_1
 10
73.0197753346412
 20
-16.44435503338474
 30
0.0
 42
0.4142135623730951
  0
SEQEND
  5
4E7
  8
LAYER_1
  0
POLYLINE
  5
74
  8
LAYER_1
 66
     1
 10
0.0
 20
0.0
 30
0.0
 70
     1
  0
VERTEX
  5
217
  8
LAYER_1
 10
94.0822753346412
 20
-16.25685503338474
 30
0.0
 42
0.4142135623730951
  0
VERTEX
  5
218
  8
LAYER_1
 10
93.8947753346412
 20
-16.44435503338474
 30
0.0
 42
0.4142135623730951
  0
VERTEX
  5
219
  8
LAYER_1
 10
94.0822753346412
 20
-16.63185503338474
 30
0.0
 42
0.4142135623730951
  0
VERTEX
  5
21A
  8
LAYER_1
 10
94.2697753346412
 20
-16.44435503338474
 30
0.0
 42
0.4142135623730951
  0
SEQEND
  5
4E8
  8
LAYER_1
  0
POLYLINE
  5
75
  8
LAYER_1
 66
     1
 10
0.0
 20
0.0
 30
0.0
 70
     1
  0
VERTEX
  5
21B
  8
LAYER_1
 10
94.0822753346412
 20
-49.75685503338474
 30
0.0
 42
0.4142135623730951
  0
VERTEX
  5
21C
  8
LAYER_1
 10
93.8947753346412
 20
-49.94435503338474
 30
0.0
 42
0.4142135623730951
  0
VERTEX
  5
21D
  8
LAYER_1
 10
94.0822753346412
 20
-50.13185503338474
 30
0.0
 42
0.4142135623730951
  0
VERTEX
  5
21E
  8
LAYER_1
 10
94.2697753346412
 20
-49.94435503338474
 30
0.0
 42
0.4142135623730951
  0
SEQEND
  5
4E9
  8
LAYER_1
  0
POLYLINE
  5
76
  8
LAYER_1
 66
     1
 10
0.0
 20
0.0
 30
0.0
 70
     1
  0
VERTEX
  5
21F
  8
LAYER_1
 10
53.26538918091546
 20
-18.8492210496486
 30
0.0
  0
VERTEX
  5
220
  8
LAYER_1
 10
53.26538918091546
 20
-15.22482720777422
 30
0.0
  0
VERTEX
  5
221
  8
LAYER_1
 10
70.39038918091546
 20
-15.22482720777422
 30
0.0
  0
VERTEX
  5
222
  8
LAYER_1
 10
70.39038918091546
 20
-38.97482720777421
 30
0.0
  0
VERTEX
  5
223
  8
LAYER_1
 10
53.26538918091546
 20
-38.97482720777421
 30
0.0
  0
VERTEX
  5
224
  8
LAYER_1
 10
53.26538918091546
 20
-24.97754351354416
 30
0.0
  0
VERTEX
  5
225
  8
LAYER_1
 10
53.26538918093509
 20
-24.97482720779004
 30
0.0
  0
VERTEX
  5
226
  8
LAYER_1
 10
49.26538918091546
 20
-23.91232720777422
 30
0.0
  0
VERTEX
  5
227
  8
LAYER_1
 10
49.26538918091546
 20
-19.91232720777422
 30
0.0
  0
VERTEX
  5
228
  8
LAYER_1
 10
53.26538918090581
 20
-18.84982720776275
 30
0.0
  0
SEQEND
  5
4EA
  8
LAYER_1
  0
POLYLINE
  5
77
  8
LAYER_1
 66
     1
 10
0.0
 20
0.0
 30
0.0
 70
     1
  0
VERTEX
  5
229
  8
LAYER_1
 10
56.59643958792862
 20
-41.98586352587065
 30
0.0
  0
VERTEX
  5
22A
  8
LAYER_1
 10
66.84643958792861
 20
-41.98586352587065
 30
0.0
  0
VERTEX
  5
22B
  8
LAYER_1
 10
66.84643958792861
 20
-39.98586352587065
 30
0.0
  0
VERTEX
  5
22C
  8
LAYER_1
 10
56.59643958792862
 20
-39.98586352587065
 30
0.0
  0
SEQEND
  5
4EB
  8
LAYER_1
  0
POLYLINE
  5
78
  8
LAYER_1
 66
     1
 10
0.0
 20
0.0
 30
0.0
 70
     1
  0
VERTEX
  5
22D
  8
LAYER_1
 10
70.16940452218034
 20
-51.60215970620878
 30
0.0
  0
VERTEX
  5
22E
  8
LAYER_1
 10
70.16940452218034
 20
-41.35215970620878
 30
0.0
  0
VERTEX
  5
22F
  8
LAYER_1
 10
68.16940452218034
 20
-41.35215970620878
 30
0.0
  0
VERTEX
  5
230
  8
LAYER_1
 10
68.16940452218034
 20
-51.60215970620878
 30
0.0
  0
SEQEND
  5
4EC
  8
LAYER_1
  0
POLYLINE
  5
79
  8
LAYER_1
 66
     1
 10
0.0
 20
0.0
 30
0.0
 70
     1
  0
VERTEX
  5
231
  8
LAYER_1
 10
71.43291422787851
 20
-13.69647717646551
 30
0.0
  0
VERTEX
  5
232
  8
LAYER_1
 10
95.18291422787851
 20
-13.69647717646551
 30
0.0
  0
VERTEX
  5
233
  8
LAYER_1
 10
95.18291422787851
 20
-9.196477176465514
 30
0.0
  0
VERTEX
  5
234
  8
LAYER_1
 10
71.43291422787851
 20
-9.196477176465514
 30
0.0
  0
SEQEND
  5
4ED
  8
LAYER_1
  0
POLYLINE
  5
7A
  8
LAYER_1
 66
     1
 10
0.0
 20
0.0
 30
0.0
 70
     1
  0
VERTEX
  5
235
  8
LAYER_1
 10
1.308430821491548
 20
-11.73115156594579
 30
0.0
  0
VERTEX
  5
236
  8
LAYER_1
 10
25.05843082149155
 20
-11.73115156594579
 30
0.0
  0
VERTEX
  5
237
  8
LAYER_1
 10
25.05843082149155
 20
-5.481151565945787
 30
0.0
  0
VERTEX
  5
238
  8
LAYER_1
 10
1.308430821491548
 20
-5.481151565945787
 30
0.0
  0
SEQEND
  5
4EE
  8
LAYER_1
  0
POLYLINE
  5
7B
  8
LAYER_1
 66
     1
 10
0.0
 20
0.0
 30
0.0
 70
     1
  0
VERTEX
  5
239
  8
LAYER_1
 10
49.73770445956293
 20
-5.138019912846232
 30
0.0
  0
VERTEX
  5
23A
  8
LAYER_1
 10
25.98770445956293
 20
-5.138019912846218
 30
0.0
  0
VERTEX
  5
23B
  8
LAYER_1
 10
25.98770445956293
 20
-12.20051991284622
 30
0.0
  0
VERTEX
  5
23C
  8
LAYER_1
 10
49.73770445956293
 20
-12.20051991284623
 30
0.0
  0
SEQEND
  5
4EF
  8
LAYER_1
  0
POLYLINE
  5
7C
  8
LAYER_1
 66
     1
 10
0.0
 20
0.0
 30
0.0
 70
     1
  0
VERTEX
  5
23D
  8
LAYER_1
 10
71.43291422787851
 20
-7.899482812032204
 30
0.0
  0
VERTEX
  5
23E
  8
LAYER_1
 10
95.18291422787851
 20
-7.899482812032204
 30
0.0
  0
VERTEX
  5
23F
  8
LAYER_1
 10
95.18291422787851
 20
-5.399482812032204
 30
0.0
  0
VERTEX
  5
240
  8
LAYER_1
 10
71.43291422787851
 20
-5.399482812032204
 30
0.0
  0
SEQEND
  5
4F0
  8
LAYER_1
  0
POLYLINE
  5
7D
  8
LAYER_1
 66
     1
 10
0.0
 20
0.0
 30
0.0
 70
     1
  0
VERTEX
  5
241
  8
LAYER_1
 10
52.71649281272542
 20
-14.2521753605599
 30
0.0
  0
VERTEX
  5
242
  8
LAYER_1
 10
70.2164928127248
 20
-14.2521753605599
 30
0.0
  0
VERTEX
  5
243
  8
LAYER_1
 10
63.34149281272276
 20
-7.252175360561488
 30
0.0
  0
VERTEX
  5
244
  8
LAYER_1
 10
52.21649281272542
 20
-8.252175360559882
 30
0.0
  0
SEQEND
  5
4F1
  8
LAYER_1
  0
POLYLINE
  5
7E
  8
LAYER_1
 66
     1
 10
0.0
 20
0.0
 30
0.0
 70
     1
  0
VERTEX
  5
245
  8
LAYER_1
 10
48.36884096551078
 20
-17.52681531046707
 30
0.0
  0
VERTEX
  5
246
  8
LAYER_1
 10
48.36884096551078
 20
-35.02681531046646
 30
0.0
  0
VERTEX
  5
247
  8
LAYER_1
 10
41.36884096551238
 20
-28.15181531046441
 30
0.0
  0
VERTEX
  5
248
  8
LAYER_1
 10
42.36884096551078
 20
-17.02681531046707
 30
0.0
  0
SEQEND
  5
4F2
  8
LAYER_1
  0
POLYLINE
  5
7F
  8
LAYER_1
 66
     1
 10
0.0
 20
0.0
 30
0.0
 70
     1
  0
VERTEX
  5
249
  8
LAYER_1
 10
52.18067565555542
 20
-37.26563810320314
 30
0.0
  0
VERTEX
  5
24A
  8
LAYER_1
 10
52.18067565555542
 20
-25.26563810320315
 30
0.0
  0
VERTEX
  5
24B
  8
LAYER_1
 10
50.18067565555542
 20
-25.26563810320315
 30
0.0
  0
VERTEX
  5
24C
  8
LAYER_1
 10
50.18067565555542
 20
-37.26563810320314
 30
0.0
  0
SEQEND
  5
4F3
  8
LAYER_1
  0
POLYLINE
  5
80
  8
LAYER_1
 66
     1
 10
0.0
 20
0.0
 30
0.0
 70
     1
  0
VERTEX
  5
24D
  8
LAYER_1
 10
38.30077584340764
 20
-15.2236844400848
 30
0.0
  0
VERTEX
  5
24E
  8
LAYER_1
 10
50.30077584340764
 20
-15.2236844400848
 30
0.0
  0
VERTEX
  5
24F
  8
LAYER_1
 10
50.30077584340764
 20
-13.2236844400848
 30
0.0
  0
VERTEX
  5
250
  8
LAYER_1
 10
38.30077584340764
 20
-13.2236844400848
 30
0.0
  0
SEQEND
  5
4F4
  8
LAYER_1
  0
POLYLINE
  5
81
  8
LAYER_1
 66
     1
 10
0.0
 20
0.0
 30
0.0
 70
     1
  0
VERTEX
  5
251
  8
LAYER_1
 10
69.46405728086475
 20
-5.955180996127382
 30
0.0
  0
VERTEX
  5
252
  8
LAYER_1
 10
70.7115460375216
 20
-5.955180996127382
 30
0.0
  0
VERTEX
  5
253
  8
LAYER_1
 10
70.7115460375216
 20
-5.205180996127382
 30
0.0
  0
VERTEX
  5
254
  8
LAYER_1
 10
50.71154603752161
 20
-5.205180996127382
 30
0.0
  0
VERTEX
  5
255
  8
LAYER_1
 10
50.71154603752161
 20
-5.955180996127382
 30
0.0
  0
VERTEX
  5
256
  8
LAYER_1
 10
51.95993537990842
 20
-5.955180996127382
 30
0.0
 42
-0.4142135623730951
  0
VERTEX
  5
257
  8
LAYER_1
 10
52.08604603752161
 20
-5.829680996127379
 30
0.0
 42
-0.4142135623730951
  0
VERTEX
  5
258
  8
LAYER_1
 10
52.21154603752161
 20
-5.955180996127382
 30
0.0
  0
VERTEX
  5
259
  8
LAYER_1
 10
52.21154603752161
 20
-6.705180996127382
 30
0.0
  0
VERTEX
  5
25A
  8
LAYER_1
 10
69.2115460375216
 20
-6.705180996127382
 30
0.0
  0
VERTEX
  5
25B
  8
LAYER_1
 10
69.2115460375216
 20
-5.955180996127382
 30
0.0
 42
-0.4142135623730951
  0
VERTEX
  5
25C
  8
LAYER_1
 10
69.33704603752162
 20
-5.829680996127379
 30
0.0
 42
-0.4142135623730951
  0
VERTEX
  5
25D
  8
LAYER_1
 10
69.4625460375216
 20
-5.955180996127382
 30
0.0
  0
SEQEND
  5
4F5
  8
LAYER_1
  0
POLYLINE
  5
82
  8
LAYER_1
 66
     1
 10
0.0
 20
0.0
 30
0.0
 70
     1
  0
VERTEX
  5
25E
  8
LAYER_1
 10
26.73293642926801
 20
-49.94866878573289
 30
0.0
  0
VERTEX
  5
25F
  8
LAYER_1
 10
27.98042518592486
 20
-49.94866878573289
 30
0.0
  0
VERTEX
  5
260
  8
LAYER_1
 10
27.98042518592486
 20
-50.69866878573289
 30
0.0
  0
VERTEX
  5
261
  8
LAYER_1
 10
7.980425185924858
 20
-50.69866878573289
 30
0.0
  0
VERTEX
  5
262
  8
LAYER_1
 10
7.980425185924858
 20
-49.94866878573289
 30
0.0
  0
VERTEX
  5
263
  8
LAYER_1
 10
9.228814528311673
 20
-49.94866878573289
 30
0.0
 42
0.4142135623730951
  0
VERTEX
  5
264
  8
LAYER_1
 10
9.354925185924856
 20
-50.07416878573289
 30
0.0
 42
0.4142135623730951
  0
VERTEX
  5
265
  8
LAYER_1
 10
9.480425185924858
 20
-49.94866878573289
 30
0.0
  0
VERTEX
  5
266
  8
LAYER_1
 10
9.480425185924858
 20
-49.19866878573289
 30
0.0
  0
VERTEX
  5
267
  8
LAYER_1
 10
26.48042518592486
 20
-49.19866878573289
 30
0.0
  0
VERTEX
  5
268
  8
LAYER_1
 10
26.48042518592486
 20
-49.94866878573289
 30
0.0
 42
0.4142135623730951
  0
VERTEX
  5
269
  8
LAYER_1
 10
26.60592518592486
 20
-50.07416878573289
 30
0.0
 42
0.4142135623730951
  0
VERTEX
  5
26A
  8
LAYER_1
 10
26.73142518592486
 20
-49.94866878573289
 30
0.0
  0
SEQEND
  5
4F6
  8
LAYER_1
  0
POLYLINE
  5
83
  8
LAYER_1
 66
     1
 10
0.0
 20
0.0
 30
0.0
 70
     1
  0
VERTEX
  5
26B
  8
LAYER_1
 10
1.870083052176454
 20
8.5341752398664
 30
0.0
  0
VERTEX
  5
26C
  8
LAYER_1
 10
1.870083052176454
 20
45.78417523986425
 30
0.0
  0
VERTEX
  5
26D
  8
LAYER_1
 10
1.870275529317102
 20
45.79524253937844
 30
0.0
  0
VERTEX
  5
26E
  8
LAYER_1
 10
1.870848490464242
 20
45.80634509044281
 30
0.0
  0
VERTEX
  5
26F
  8
LAYER_1
 10
1.871795230205671
 20
45.81747618764518
 30
0.0
  0
VERTEX
  5
270
  8
LAYER_1
 10
1.873109043129182
 20
45.82862912557332
 30
0.0
  0
VERTEX
  5
271
  8
LAYER_1
 10
1.874783223822573
 20
45.83979719881505
 30
0.0
  0
VERTEX
  5
272
  8
LAYER_1
 10
1.876811066873638
 20
45.85097370195813
 30
0.0
  0
VERTEX
  5
273
  8
LAYER_1
 10
1.879185866870172
 20
45.8621519295904
 30
0.0
  0
VERTEX
  5
274
  8
LAYER_1
 10
1.881900918399972
 20
45.87332517629962
 30
0.0
  0
VERTEX
  5
275
  8
LAYER_1
 10
1.884949516050832
 20
45.8844867366736
 30
0.0
  0
VERTEX
  5
276
  8
LAYER_1
 10
1.888324954410549
 20
45.89562990530013
 30
0.0
  0
VERTEX
  5
277
  8
LAYER_1
 10
1.892020528066917
 20
45.90674797676702
 30
0.0
  0
VERTEX
  5
278
  8
LAYER_1
 10
1.896029531607732
 20
45.91783424566204
 30
0.0
  0
VERTEX
  5
279
  8
LAYER_1
 10
1.904961006693885
 20
45.9398845540877
 30
0.0
  0
VERTEX
  5
27A
  8
LAYER_1
 10
1.915065736371371
 20
45.96172718727949
 30
0.0
  0
VERTEX
  5
27B
  8
LAYER_1
 10
1.926290077342555
 20
45.98330850193976
 30
0.0
  0
VERTEX
  5
27C
  8
LAYER_1
 10
1.938580386309799
 20
46.00457485477089
 30
0.0
  0
VERTEX
  5
27D
  8
LAYER_1
 10
1.951883019975468
 20
46.02547260247522
 30
0.0
  0
VERTEX
  5
27E
  8
LAYER_1
 10
1.966144335041924
 20
46.04594810175513
 30
0.0
  0
VERTEX
  5
27F
  8
LAYER_1
 10
1.981310688211532
 20
46.06594770931298
 30
0.0
  0
VERTEX
  5
280
  8
LAYER_1
 10
1.997328436186655
 20
46.08541778185113
 30
0.0
  0
VERTEX
  5
281
  8
LAYER_1
 10
2.014143935669656
 20
46.10430467607195
 30
0.0
  0
VERTEX
  5
282
  8
LAYER_1
 10
2.0317035433629
 20
46.1225547486778
 30
0.0
  0
VERTEX
  5
283
  8
LAYER_1
 10
2.049953615968749
 20
46.14011435637104
 30
0.0
  0
VERTEX
  5
284
  8
LAYER_1
 10
2.068840510189569
 20
46.15692985585405
 30
0.0
  0
VERTEX
  5
285
  8
LAYER_1
 10
2.088310582727721
 20
46.17294760382917
 30
0.0
  0
VERTEX
  5
286
  8
LAYER_1
 10
2.10831019028557
 20
46.18811395699877
 30
0.0
  0
VERTEX
  5
287
  8
LAYER_1
 10
2.128785689565479
 20
46.20237527206523
 30
0.0
  0
VERTEX
  5
288
  8
LAYER_1
 10
2.149683437269813
 20
46.2156779057309
 30
0.0
  0
VERTEX
  5
289
  8
LAYER_1
 10
2.170949790100933
 20
46.22796821469814
 30
0.0
  0
VERTEX
  5
28A
  8
LAYER_1
 10
2.192531104761206
 20
46.23919255566933
 30
0.0
  0
VERTEX
  5
28B
  8
LAYER_1
 10
2.214373737952992
 20
46.24929728534681
 30
0.0
  0
VERTEX
  5
28C
  8
LAYER_1
 10
2.236424046378657
 20
46.25822876043297
 30
0.0
  0
VERTEX
  5
28D
  8
LAYER_1
 10
2.247510315273682
 20
46.26223776397379
 30
0.0
  0
VERTEX
  5
28E
  8
LAYER_1
 10
2.258628386740564
 20
46.26593333763015
 30
0.0
  0
VERTEX
  5
28F
  8
LAYER_1
 10
2.269771555367097
 20
46.26930877598987
 30
0.0
  0
VERTEX
  5
290
  8
LAYER_1
 10
2.280933115741076
 20
46.27235737364073
 30
0.0
  0
VERTEX
  5
291
  8
LAYER_1
 10
2.292106362450299
 20
46.27507242517053
 30
0.0
  0
VERTEX
  5
292
  8
LAYER_1
 10
2.303284590082558
 20
46.27744722516707
 30
0.0
  0
VERTEX
  5
293
  8
LAYER_1
 10
2.314461093225651
 20
46.27947506821813
 30
0.0
  0
VERTEX
  5
294
  8
LAYER_1
 10
2.325629166467373
 20
46.28114924891153
 30
0.0
  0
VERTEX
  5
295
  8
LAYER_1
 10
2.336782104395519
 20
46.28246306183504
 30
0.0
  0
VERTEX
  5
296
  8
LAYER_1
 10
2.347913201597884
 20
46.28340980157646
 30
0.0
  0
VERTEX
  5
297
  8
LAYER_1
 10
2.359015752662263
 20
46.2839827627236
 30
0.0
  0
VERTEX
  5
298
  8
LAYER_1
 10
2.370083052176454
 20
46.28417523986425
 30
0.0
  0
VERTEX
  5
299
  8
LAYER_1
 10
4.370083052176454
 20
46.28417523986425
 30
0.0
  0
VERTEX
  5
29A
  8
LAYER_1
 10
4.401074517980616
 20
46.28392373909705
 30
0.0
  0
VERTEX
  5
29B
  8
LAYER_1
 10
4.432270906115196
 20
46.28316231098717
 30
0.0
  0
VERTEX
  5
29C
  8
LAYER_1
 10
4.463640791503256
 20
46.28188056682221
 30
0.0
  0
VERTEX
  5
29D
  8
LAYER_1
 10
4.495152749067856
 20
46.2800681178898
 30
0.0
  0
VERTEX
  5
29E
  8
LAYER_1
 10
4.526775353732056
 20
46.27771457547752
 30
0.0
  0
VERTEX
  5
29F
  8
LAYER_1
 10
4.558477180418915
 20
46.27480955087297
 30
0.0
  0
VERTEX
  5
2A0
  8
LAYER_1
 10
4.590226804051495
 20
46.27134265536378
 30
0.0
  0
VERTEX
  5
2A1
  8
LAYER_1
 10
4.621992799552857
 20
46.26730350023755
 30
0.0
  0
VERTEX
  5
2A2
  8
LAYER_1
 10
4.65374374184606
 20
46.26268169678187
 30
0.0
  0
VERTEX
  5
2A3
  8
LAYER_1
 10
4.685448205854163
 20
46.25746685628435
 30
0.0
  0
VERTEX
  5
2A4
  8
LAYER_1
 10
4.717074766500229
 20
46.25164859003259
 30
0.0
  0
VERTEX
  5
2A5
  8
LAYER_1
 10
4.748591998707317
 20
46.2452165093142
 30
0.0
  0
VERTEX
  5
2A6
  8
LAYER_1
 10
4.779968477398487
 20
46.23816022541678
 30
0.0
  0
VERTEX
  5
2A7
  8
LAYER_1
 10
4.811172777496799
 20
46.23046934962794
 30
0.0
  0
VERTEX
  5
2A8
  8
LAYER_1
 10
4.842173473925314
 20
46.22213349323528
 30
0.0
  0
VERTEX
  5
2A9
  8
LAYER_1
 10
4.872939141607091
 20
46.2131422675264
 30
0.0
  0
VERTEX
  5
2AA
  8
LAYER_1
 10
4.903438355465191
 20
46.20348528378892
 30
0.0
  0
VERTEX
  5
2AB
  8
LAYER_1
 10
4.933639690422676
 20
46.19315215331042
 30
0.0
  0
VERTEX
  5
2AC
  8
LAYER_1
 10
4.963511721402604
 20
46.18213248737852
 30
0.0
  0
VERTEX
  5
2AD
  8
LAYER_1
 10
4.993023023328035
 20
46.17041589728083
 30
0.0
  0
VERTEX
  5
2AE
  8
LAYER_1
 10
5.022142171122031
 20
46.15799199430494
 30
0.0
  0
VERTEX
  5
2AF
  8
LAYER_1
 10
5.050837739707651
 20
46.14485038973847
 30
0.0
  0
VERTEX
  5
2B0
  8
LAYER_1
 10
5.079078304007957
 20
46.13098069486901
 30
0.0
  0
VERTEX
  5
2B1
  8
LAYER_1
 10
5.106832438946006
 20
46.11637252098417
 30
0.0
  0
VERTEX
  5
2B2
  8
LAYER_1
 10
5.134068719444862
 20
46.10101547937155
 30
0.0
  0
VERTEX
  5
2B3
  8
LAYER_1
 10
5.160755720427582
 20
46.08489918131877
 30
0.0
  0
VERTEX
  5
2B4
  8
LAYER_1
 10
5.186862016817228
 20
46.06801323811341
 30
0.0
  0
VERTEX
  5
2B5
  8
LAYER_1
 10
5.21235618353686
 20
46.05034726104309
 30
0.0
  0
VERTEX
  5
2B6
  8
LAYER_1
 10
5.237206795509538
 20
46.0318908613954
 30
0.0
  0
VERTEX
  5
2B7
  8
LAYER_1
 10
5.261382427658324
 20
46.01263365045797
 30
0.0
  0
VERTEX
  5
2B8
  8
LAYER_1
 10
5.284851654906275
 20
45.99256523951838
 30
0.0
  0
VERTEX
  5
2B9
  8
LAYER_1
 10
5.307583052176454
 20
45.97167523986425
 30
0.0
  0
VERTEX
  5
2BA
  8
LAYER_1
 10
9.307583052176525
 20
42.15917523986418
 30
0.0
  0
VERTEX
  5
2BB
  8
LAYER_1
 10
9.337128153491967
 20
42.13128076848652
 30
0.0
  0
VERTEX
  5
2BC
  8
LAYER_1
 10
9.367529697003501
 20
42.10326350389735
 30
0.0
  0
VERTEX
  5
2BD
  8
LAYER_1
 10
9.398764477917238
 20
42.07538870810993
 30
0.0
  0
VERTEX
  5
2BE
  8
LAYER_1
 10
9.430809291439282
 20
42.04792164313751
 30
0.0
  0
VERTEX
  5
2BF
  8
LAYER_1
 10
9.46364093277574
 20
42.02112757099336
 30
0.0
  0
VERTEX
  5
2C0
  8
LAYER_1
 10
9.480344562376281
 20
42.00806580161102
 30
0.0
  0
VERTEX
  5
2C1
  8
LAYER_1
 10
9.497236197132718
 20
41.99527175369073
 30
0.0
  0
VERTEX
  5
2C2
  8
LAYER_1
 10
9.514312936445812
 20
41.98277858498413
 30
0.0
  0
VERTEX
  5
2C3
  8
LAYER_1
 10
9.531571879716324
 20
41.97061945324288
 30
0.0
  0
VERTEX
  5
2C4
  8
LAYER_1
 10
9.549010126345022
 20
41.95882751621865
 30
0.0
  0
VERTEX
  5
2C5
  8
LAYER_1
 10
9.566624775732668
 20
41.94743593166308
 30
0.0
  0
VERTEX
  5
2C6
  8
LAYER_1
 10
9.584412927280026
 20
41.93647785732784
 30
0.0
  0
VERTEX
  5
2C7
  8
LAYER_1
 10
9.602371680387854
 20
41.92598645096457
 30
0.0
  0
VERTEX
  5
2C8
  8
LAYER_1
 10
9.620498134456922
 20
41.91599487032495
 30
0.0
  0
VERTEX
  5
2C9
  8
LAYER_1
 10
9.63878938888799
 20
41.90653627316063
 30
0.0
  0
VERTEX
  5
2CA
  8
LAYER_1
 10
9.657242543081821
 20
41.89764381722325
 30
0.0
  0
VERTEX
  5
2CB
  8
LAYER_1
 10
9.675854696439181
 20
41.8893506602645
 30
0.0
  0
VERTEX
  5
2CC
  8
LAYER_1
 10
9.69462294836083
 20
41.88168996003601
 30
0.0
  0
VERTEX
  5
2CD
  8
LAYER_1
 10
9.713544398247535
 20
41.87469487428945
 30
0.0
  0
VERTEX
  5
2CE
  8
LAYER_1
 10
9.732616145500057
 20
41.86839856077647
 30
0.0
  0
VERTEX
  5
2CF
  8
LAYER_1
 10
9.75183528951916
 20
41.86283417724874
 30
0.0
  0
VERTEX
  5
2D0
  8
LAYER_1
 10
9.77119892970561
 20
41.8580348814579
 30
0.0
  0
VERTEX
  5
2D1
  8
LAYER_1
 10
9.790704165460166
 20
41.85403383115562
 30
0.0
  0
VERTEX
  5
2D2
  8
LAYER_1
 10
9.810348096183594
 20
41.85086418409355
 30
0.0
  0
VERTEX
  5
2D3
  8
LAYER_1
 10
9.830127821276655
 20
41.84855909802335
 30
0.0
  0
VERTEX
  5
2D4
  8
LAYER_1
 10
9.850040440140114
 20
41.84715173069669
 30
0.0
  0
VERTEX
  5
2D5
  8
LAYER_1
 10
9.870083052174735
 20
41.8466752398652
 30
0.0
  0
VERTEX
  5
2D6
  8
LAYER_1
 10
28.05758305218563
 20
41.8466752398627
 30
0.0
  0
VERTEX
  5
2D7
  8
LAYER_1
 10
28.08133771802434
 20
41.84695647072881
 30
0.0
  0
VERTEX
  5
2D8
  8
LAYER_1
 10
28.10537821691812
 20
41.84780325299366
 30
0.0
  0
VERTEX
  5
2D9
  8
LAYER_1
 10
28.12966131852381
 20
41.84922022115694
 30
0.0
  0
VERTEX
  5
2DA
  8
LAYER_1
 10
28.15414379249822
 20
41.85121200971834
 30
0.0
  0
VERTEX
  5
2DB
  8
LAYER_1
 10
28.17878240849817
 20
41.85378325317757
 30
0.0
  0
VERTEX
  5
2DC
  8
LAYER_1
 10
28.20353393618049
 20
41.85693858603432
 30
0.0
  0
VERTEX
  5
2DD
  8
LAYER_1
 10
28.22835514520198
 20
41.86068264278832
 30
0.0
  0
VERTEX
  5
2DE
  8
LAYER_1
 10
28.25320280521947
 20
41.86502005793923
 30
0.0
  0
VERTEX
  5
2DF
  8
LAYER_1
 10
28.27803368588977
 20
41.86995546598679
 30
0.0
  0
VERTEX
  5
2E0
  8
LAYER_1
 10
28.30280455686972
 20
41.87549350143068
 30
0.0
  0
VERTEX
  5
2E1
  8
LAYER_1
 10
28.32747218781611
 20
41.88163879877061
 30
0.0
  0
VERTEX
  5
2E2
  8
LAYER_1
 10
28.35199334838577
 20
41.88839599250628
 30
0.0
  0
VERTEX
  5
2E3
  8
LAYER_1
 10
28.37632480823552
 20
41.89576971713738
 30
0.0
  0
VERTEX
  5
2E4
  8
LAYER_1
 10
28.40042333702219
 20
41.90376460716364
 30
0.0
  0
VERTEX
  5
2E5
  8
LAYER_1
 10
28.42424570440258
 20
41.91238529708474
 30
0.0
  0
VERTEX
  5
2E6
  8
LAYER_1
 10
28.44774868003351
 20
41.92163642140039
 30
0.0
  0
VERTEX
  5
2E7
  8
LAYER_1
 10
28.47088903357182
 20
41.93152261461029
 30
0.0
  0
VERTEX
  5
2E8
  8
LAYER_1
 10
28.4936235346743
 20
41.94204851121414
 30
0.0
  0
VERTEX
  5
2E9
  8
LAYER_1
 10
28.51590895299778
 20
41.95321874571164
 30
0.0
  0
VERTEX
  5
2EA
  8
LAYER_1
 10
28.53770205819909
 20
41.96503795260249
 30
0.0
  0
VERTEX
  5
2EB
  8
LAYER_1
 10
28.55895961993503
 20
41.9775107663864
 30
0.0
  0
VERTEX
  5
2EC
  8
LAYER_1
 10
28.57963840786244
 20
41.99064182156307
 30
0.0
  0
VERTEX
  5
2ED
  8
LAYER_1
 10
28.59969519163812
 20
42.00443575263219
 30
0.0
  0
VERTEX
  5
2EE
  8
LAYER_1
 10
28.61908674091889
 20
42.01889719409348
 30
0.0
  0
VERTEX
  5
2EF
  8
LAYER_1
 10
28.63776982536158
 20
42.03403078044664
 30
0.0
  0
VERTEX
  5
2F0
  8
LAYER_1
 10
28.655701214623
 20
42.04984114619135
 30
0.0
  0
VERTEX
  5
2F1
  8
LAYER_1
 10
28.67283767835997
 20
42.06633292582733
 30
0.0
  0
VERTEX
  5
2F2
  8
LAYER_1
 10
28.68913598622931
 20
42.08351075385429
 30
0.0
  0
VERTEX
  5
2F3
  8
LAYER_1
 10
28.70455290788784
 20
42.10137926477191
 30
0.0
  0
VERTEX
  5
2F4
  8
LAYER_1
 10
28.71904521299237
 20
42.11994309307991
 30
0.0
  0
VERTEX
  5
2F5
  8
LAYER_1
 10
28.72593112485464
 20
42.12948719953646
 30
0.0
  0
VERTEX
  5
2F6
  8
LAYER_1
 10
28.73256967119973
 20
42.13920687327798
 30
0.0
  0
VERTEX
  5
2F7
  8
LAYER_1
 10
28.73895544823473
 20
42.14910269361695
 30
0.0
  0
VERTEX
  5
2F8
  8
LAYER_1
 10
28.74508305216673
 20
42.15917523986582
 30
0.0
  0
VERTEX
  5
2F9
  8
LAYER_1
 10
30.99508305217694
 20
45.97167523986426
 30
0.0
  0
VERTEX
  5
2FA
  8
LAYER_1
 10
31.0047475313129
 20
45.98746231527917
 30
0.0
  0
VERTEX
  5
2FB
  8
LAYER_1
 10
31.01499941666831
 20
46.00307562378723
 30
0.0
  0
VERTEX
  5
2FC
  8
LAYER_1
 10
31.02581842259453
 20
46.01849369401192
 30
0.0
  0
VERTEX
  5
2FD
  8
LAYER_1
 10
31.03718426344294
 20
46.03369505457673
 30
0.0
  0
VERTEX
  5
2FE
  8
LAYER_1
 10
31.04907665356491
 20
46.04865823410515
 30
0.0
  0
VERTEX
  5
2FF
  8
LAYER_1
 10
31.0614753073118
 20
46.06336176122068
 30
0.0
  0
VERTEX
  5
300
  8
LAYER_1
 10
31.07435993903501
 20
46.07778416454682
 30
0.0
  0
VERTEX
  5
301
  8
LAYER_1
 10
31.08771026308588
 20
46.09190397270706
 30
0.0
  0
VERTEX
  5
302
  8
LAYER_1
 10
31.10150599381581
 20
46.10569971432489
 30
0.0
  0
VERTEX
  5
303
  8
LAYER_1
 10
31.11572684557615
 20
46.11914991802379
 30
0.0
  0
VERTEX
  5
304
  8
LAYER_1
 10
31.13035253271828
 20
46.13223311242729
 30
0.0
  0
VERTEX
  5
305
  8
LAYER_1
 10
31.14536276959358
 20
46.14492782615885
 30
0.0
  0
VERTEX
  5
306
  8
LAYER_1
 10
31.1607372705534
 20
46.15721258784197
 30
0.0
  0
VERTEX
  5
307
  8
LAYER_1
 10
31.17645574994914
 20
46.16906592610015
 30
0.0
  0
VERTEX
  5
308
  8
LAYER_1
 10
31.19249792213215
 20
46.18046636955687
 30
0.0
  0
VERTEX
  5
309
  8
LAYER_1
 10
31.20884350145382
 20
46.19139244683564
 30
0.0
  0
VERTEX
  5
30A
  8
LAYER_1
 10
31.22547220226551
 20
46.20182268655994
 30
0.0
  0
VERTEX
  5
30B
  8
LAYER_1
 10
31.24236373891859
 20
46.21173561735327
 30
0.0
  0
VERTEX
  5
30C
  8
LAYER_1
 10
31.25949782576444
 20
46.22110976783912
 30
0.0
  0
VERTEX
  5
30D
  8
LAYER_1
 10
31.27685417715443
 20
46.229923666641
 30
0.0
  0
VERTEX
  5
30E
  8
LAYER_1
 10
31.29441250743993
 20
46.23815584238238
 30
0.0
  0
VERTEX
  5
30F
  8
LAYER_1
 10
31.31215253097231
 20
46.24578482368677
 30
0.0
  0
VERTEX
  5
310
  8
LAYER_1
 10
31.33005396210295
 20
46.25278913917764
 30
0.0
  0
VERTEX
  5
311
  8
LAYER_1
 10
31.34809651518322
 20
46.25914731747852
 30
0.0
  0
VERTEX
  5
312
  8
LAYER_1
 10
31.36625990456448
 20
46.26483788721287
 30
0.0
  0
VERTEX
  5
313
  8
LAYER_1
 10
31.38452384459812
 20
46.26983937700419
 30
0.0
  0
VERTEX
  5
314
  8
LAYER_1
 10
31.40286804963549
 20
46.27413031547599
 30
0.0
  0
VERTEX
  5
315
  8
LAYER_1
 10
31.42127223402798
 20
46.27768923125174
 30
0.0
  0
VERTEX
  5
316
  8
LAYER_1
 10
31.43971611212696
 20
46.28049465295496
 30
0.0
  0
VERTEX
  5
317
  8
LAYER_1
 10
31.4581793982838
 20
46.28252510920911
 30
0.0
  0
VERTEX
  5
318
  8
LAYER_1
 10
31.47664180684987
 20
46.28375912863771
 30
0.0
  0
VERTEX
  5
319
  8
LAYER_1
 10
31.49508305217654
 20
46.28417523986425
 30
0.0
  0
VERTEX
  5
31A
  8
LAYER_1
 10
66.55758305218129
 20
46.28417523986425
 30
0.0
  0
VERTEX
  5
31B
  8
LAYER_1
 10
66.56518889996983
 20
46.28402026206503
 30
0.0
  0
VERTEX
  5
31C
  8
LAYER_1
 10
66.57275216010535
 20
46.28355935565564
 30
0.0
  0
VERTEX
  5
31D
  8
LAYER_1
 10
66.58774242878934
 20
46.28174391893579
 30
0.0
  0
VERTEX
  5
31E
  8
LAYER_1
 10
66.60253688097706
 20
46.27877725356362
 30
0.0
  0
VERTEX
  5
31F
  8
LAYER_1
 10
66.61711853941237
 20
46.27470768339803
 30
0.0
  0
VERTEX
  5
320
  8
LAYER_1
 10
66.63147042683917
 20
46.26958353229795
 30
0.0
  0
VERTEX
  5
321
  8
LAYER_1
 10
66.64557556600127
 20
46.26345312412232
 30
0.0
  0
VERTEX
  5
322
  8
LAYER_1
 10
66.65941697964251
 20
46.25636478273005
 30
0.0
  0
VERTEX
  5
323
  8
LAYER_1
 10
66.6729776905068
 20
46.24836683198006
 30
0.0
  0
VERTEX
  5
324
  8
LAYER_1
 10
66.68624072133795
 20
46.23950759573127
 30
0.0
  0
VERTEX
  5
325
  8
LAYER_1
 10
66.69918909487984
 20
46.22983539784261
 30
0.0
  0
VERTEX
  5
326
  8
LAYER_1
 10
66.7118058338763
 20
46.21939856217301
 30
0.0
  0
VERTEX
  5
327
  8
LAYER_1
 10
66.7240739610712
 20
46.20824541258138
 30
0.0
  0
VERTEX
  5
328
  8
LAYER_1
 10
66.73597649920839
 20
46.19642427292666
 30
0.0
  0
VERTEX
  5
329
  8
LAYER_1
 10
66.74749647103172
 20
46.18398346706774
 30
0.0
  0
VERTEX
  5
32A
  8
LAYER_1
 10
66.75861689928504
 20
46.17097131886356
 30
0.0
  0
VERTEX
  5
32B
  8
LAYER_1
 10
66.76932080671222
 20
46.15743615217306
 30
0.0
  0
VERTEX
  5
32C
  8
LAYER_1
 10
66.77959121605709
 20
46.14342629085515
 30
0.0
  0
VERTEX
  5
32D
  8
LAYER_1
 10
66.78941115006353
 20
46.12899005876874
 30
0.0
  0
VERTEX
  5
32E
  8
LAYER_1
 10
66.79876363147537
 20
46.11417577977276
 30
0.0
  0
VERTEX
  5
32F
  8
LAYER_1
 10
66.80763168303648
 20
46.09903177772614
 30
0.0
  0
VERTEX
  5
330
  8
LAYER_1
 10
66.81599832749072
 20
46.08360637648781
 30
0.0
  0
VERTEX
  5
331
  8
LAYER_1
 10
66.8238465875819
 20
46.06794789991666
 30
0.0
  0
VERTEX
  5
332
  8
LAYER_1
 10
66.83115948605393
 20
46.05210467187164
 30
0.0
  0
VERTEX
  5
333
  8
LAYER_1
 10
66.83792004565062
 20
46.03612501621166
 30
0.0
  0
VERTEX
  5
334
  8
LAYER_1
 10
66.84411128911584
 20
46.02005725679567
 30
0.0
  0
VERTEX
  5
335
  8
LAYER_1
 10
66.84971623919347
 20
46.00394971748255
 30
0.0
  0
VERTEX
  5
336
  8
LAYER_1
 10
66.85471791862733
 20
45.98785072213126
 30
0.0
  0
VERTEX
  5
337
  8
LAYER_1
 10
66.85909935016127
 20
45.97180859460069
 30
0.0
  0
VERTEX
  5
338
  8
LAYER_1
 10
66.86284355653919
 20
45.95587165874979
 30
0.0
  0
VERTEX
  5
339
  8
LAYER_1
 10
66.86593356050489
 20
45.94008823843747
 30
0.0
  0
VERTEX
  5
33A
  8
LAYER_1
 10
66.86835238480224
 20
45.92450665752266
 30
0.0
  0
VERTEX
  5
33B
  8
LAYER_1
 10
66.87008305217509
 20
45.90917523986426
 30
0.0
  0
VERTEX
  5
33C
  8
LAYER_1
 10
67.49508305219055
 20
39.03417523986335
 30
0.0
  0
VERTEX
  5
33D
  8
LAYER_1
 10
67.49595612021677
 20
39.02179054611995
 30
0.0
  0
VERTEX
  5
33E
  8
LAYER_1
 10
67.49633107460689
 20
39.00939514773187
 30
0.0
  0
VERTEX
  5
33F
  8
LAYER_1
 10
67.49621717565122
 20
38.99699508590887
 30
0.0
  0
VERTEX
  5
340
  8
LAYER_1
 10
67.49562368364016
 20
38.98459640186071
 30
0.0
  0
VERTEX
  5
341
  8
LAYER_1
 10
67.49455985886402
 20
38.97220513679714
 30
0.0
  0
VERTEX
  5
342
  8
LAYER_1
 10
67.49303496161312
 20
38.95982733192791
 30
0.0
  0
VERTEX
  5
343
  8
LAYER_1
 10
67.49105825217782
 20
38.94746902846279
 30
0.0
  0
VERTEX
  5
344
  8
LAYER_1
 10
67.48863899084843
 20
38.93513626761152
 30
0.0
  0
VERTEX
  5
345
  8
LAYER_1
 10
67.48578643791531
 20
38.92283509058386
 30
0.0
  0
VERTEX
  5
346
  8
LAYER_1
 10
67.4825098536688
 20
38.91057153858958
 30
0.0
  0
VERTEX
  5
347
  8
LAYER_1
 10
67.47881849839924
 20
38.89835165283842
 30
0.0
  0
VERTEX
  5
348
  8
LAYER_1
 10
67.47472163239694
 20
38.88618147454014
 30
0.0
  0
VERTEX
  5
349
  8
LAYER_1
 10
67.47022851595226
 20
38.87406704490449
 30
0.0
  0
VERTEX
  5
34A
  8
LAYER_1
 10
67.46534840935554
 20
38.86201440514124
 30
0.0
  0
VERTEX
  5
34B
  8
LAYER_1
 10
67.46009057289712
 20
38.85002959646013
 30
0.0
  0
VERTEX
  5
34C
  8
LAYER_1
 10
67.45446426686732
 20
38.83811866007092
 30
0.0
  0
VERTEX
  5
34D
  8
LAYER_1
 10
67.4484787515565
 20
38.82628763718336
 30
0.0
  0
VERTEX
  5
34E
  8
LAYER_1
 10
67.44214328725496
 20
38.81454256900722
 30
0.0
  0
VERTEX
  5
34F
  8
LAYER_1
 10
67.43546713425309
 20
38.80288949675225
 30
0.0
  0
VERTEX
  5
350
  8
LAYER_1
 10
67.42845955284119
 20
38.7913344616282
 30
0.0
  0
VERTEX
  5
351
  8
LAYER_1
 10
67.42112980330961
 20
38.77988350484483
 30
0.0
  0
VERTEX
  5
352
  8
LAYER_1
 10
67.41348714594866
 20
38.76854266761188
 30
0.0
  0
VERTEX
  5
353
  8
LAYER_1
 10
67.40554084104873
 20
38.75731799113913
 30
0.0
  0
VERTEX
  5
354
  8
LAYER_1
 10
67.39730014890013
 20
38.74621551663633
 30
0.0
  0
VERTEX
  5
355
  8
LAYER_1
 10
67.37997264401827
 20
38.72440133837956
 30
0.0
  0
VERTEX
  5
356
  8
LAYER_1
 10
67.36157871362578
 20
38.70314846251965
 30
0.0
  0
VERTEX
  5
357
  8
LAYER_1
 10
67.34219244004537
 20
38.68250521873461
 30
0.0
  0
VERTEX
  5
358
  8
LAYER_1
 10
67.32188790559974
 20
38.6625199367025
 30
0.0
  0
VERTEX
  5
359
  8
LAYER_1
 10
67.30073919261159
 20
38.64324094610136
 30
0.0
  0
VERTEX
  5
35A
  8
LAYER_1
 10
67.27882038340364
 20
38.62471657660925
 30
0.0
  0
VERTEX
  5
35B
  8
LAYER_1
 10
67.25620556029857
 20
38.60699515790419
 30
0.0
  0
VERTEX
  5
35C
  8
LAYER_1
 10
67.23296880561907
 20
38.59012501966423
 30
0.0
  0
VERTEX
  5
35D
  8
LAYER_1
 10
67.20918420168788
 20
38.57415449156742
 30
0.0
  0
VERTEX
  5
35E
  8
LAYER_1
 10
67.18492583082767
 20
38.5591319032918
 30
0.0
  0
VERTEX
  5
35F
  8
LAYER_1
 10
67.16026777536115
 20
38.5451055845154
 30
0.0
  0
VERTEX
  5
360
  8
LAYER_1
 10
67.13528411761101
 20
38.53212386491629
 30
0.0
  0
VERTEX
  5
361
  8
LAYER_1
 10
67.11004893989997
 20
38.52023507417249
 30
0.0
  0
VERTEX
  5
362
  8
LAYER_1
 10
67.08463632455073
 20
38.50948754196205
 30
0.0
  0
VERTEX
  5
363
  8
LAYER_1
 10
67.05912035388599
 20
38.49992959796302
 30
0.0
  0
VERTEX
  5
364
  8
LAYER_1
 10
67.04634676103613
 20
38.49561182456718
 30
0.0
  0
VERTEX
  5
365
  8
LAYER_1
 10
67.03357511022844
 20
38.49160957185345
 30
0.0
  0
VERTEX
  5
366
  8
LAYER_1
 10
67.0208146617532
 20
38.48792888103158
 30
0.0
  0
VERTEX
  5
367
  8
LAYER_1
 10
67.00807467590079
 20
38.48457579331135
 30
0.0
  0
VERTEX
  5
368
  8
LAYER_1
 10
66.99536441296152
 20
38.4815563499025
 30
0.0
  0
VERTEX
  5
369
  8
LAYER_1
 10
66.98269313322575
 20
38.47887659201479
 30
0.0
  0
VERTEX
  5
36A
  8
LAYER_1
 10
66.97007009698379
 20
38.47654256085798
 30
0.0
  0
VERTEX
  5
36B
  8
LAYER_1
 10
66.957504564526
 20
38.47456029764182
 30
0.0
  0
VERTEX
  5
36C
  8
LAYER_1
 10
66.94500579614272
 20
38.47293584357605
 30
0.0
  0
VERTEX
  5
36D
  8
LAYER_1
 10
66.93258305212427
 20
38.47167523987046
 30
0.0
  0
VERTEX
  5
36E
  8
LAYER_1
 10
55.43258305217907
 20
37.47167523986457
 30
0.0
  0
VERTEX
  5
36F
  8
LAYER_1
 10
55.41153577320324
 20
37.46953341439293
 30
0.0
  0
VERTEX
  5
370
  8
LAYER_1
 10
55.39035161188518
 20
37.46673762994867
 30
0.0
  0
VERTEX
  5
371
  8
LAYER_1
 10
55.36910321526888
 20
37.46326600132513
 30
0.0
  0
VERTEX
  5
372
  8
LAYER_1
 10
55.34786323039835
 20
37.45909664331565
 30
0.0
  0
VERTEX
  5
373
  8
LAYER_1
 10
55.32670430431759
 20
37.45420767071354
 30
0.0
  0
VERTEX
  5
374
  8
LAYER_1
 10
55.3056990840706
 20
37.44857719831216
 30
0.0
  0
VERTEX
  5
375
  8
LAYER_1
 10
55.28492021670137
 20
37.44218334090482
 30
0.0
  0
VERTEX
  5
376
  8
LAYER_1
 10
55.2644403492539
 20
37.43500421328486
 30
0.0
  0
VERTEX
  5
377
  8
LAYER_1
 10
55.24433212877221
 20
37.42701793024561
 30
0.0
  0
VERTEX
  5
378
  8
LAYER_1
 10
55.22466820230031
 20
37.41820260658041
 30
0.0
  0
VERTEX
  5
379
  8
LAYER_1
 10
55.20552121688219
 20
37.40853635708258
 30
0.0
  0
VERTEX
  5
37A
  8
LAYER_1
 10
55.18696381956183
 20
37.39799729654546
 30
0.0
  0
VERTEX
  5
37B
  8
LAYER_1
 10
55.16906865738325
 20
37.38656353976236
 30
0.0
  0
VERTEX
  5
37C
  8
LAYER_1
 10
55.16039211667339
 20
37.3805043111515
 30
0.0
  0
VERTEX
  5
37D
  8
LAYER_1
 10
55.15190837739046
 20
37.37421320152665
 30
0.0
  0
VERTEX
  5
37E
  8
LAYER_1
 10
55.14362652041498
 20
37.36768747523698
 30
0.0
  0
VERTEX
  5
37F
  8
LAYER_1
 10
55.13555562662745
 20
37.36092439663165
 30
0.0
  0
VERTEX
  5
380
  8
LAYER_1
 10
55.12770477690837
 20
37.35392123005982
 30
0.0
  0
VERTEX
  5
381
  8
LAYER_1
 10
55.12008305213823
 20
37.34667523987067
 30
0.0
  0
VERTEX
  5
382
  8
LAYER_1
 10
41.30758305210318
 20
23.78417523990802
 30
0.0
  0
VERTEX
  5
383
  8
LAYER_1
 10
41.29681804683807
 20
23.77383311924691
 30
0.0
  0
VERTEX
  5
384
  8
LAYER_1
 10
41.28575527913405
 20
23.7636557905987
 30
0.0
  0
VERTEX
  5
385
  8
LAYER_1
 10
41.27440577123673
 20
23.75365569570184
 30
0.0
  0
VERTEX
  5
386
  8
LAYER_1
 10
41.26278054539172
 20
23.7438452762948
 30
0.0
  0
VERTEX
  5
387
  8
LAYER_1
 10
41.25089062384463
 20
23.73423697411603
 30
0.0
  0
VERTEX
  5
388
  8
LAYER_1
 10
41.23874702884105
 20
23.72484323090397
 30
0.0
  0
VERTEX
  5
389
  8
LAYER_1
 10
41.2263607826266
 20
23.7156764883971
 30
0.0
  0
VERTEX
  5
38A
  8
LAYER_1
 10
41.2137429074469
 20
23.70674918833386
 30
0.0
  0
VERTEX
  5
38B
  8
LAYER_1
 10
41.20090442554753
 20
23.69807377245271
 30
0.0
  0
VERTEX
  5
38C
  8
LAYER_1
 10
41.18785635917412
 20
23.6896626824921
 30
0.0
  0
VERTEX
  5
38D
  8
LAYER_1
 10
41.17460973057226
 20
23.68152836019049
 30
0.0
  0
VERTEX
  5
38E
  8
LAYER_1
 10
41.16117556198756
 20
23.67368324728633
 30
0.0
  0
VERTEX
  5
38F
  8
LAYER_1
 10
41.14756487566562
 20
23.66613978551808
 30
0.0
  0
VERTEX
  5
390
  8
LAYER_1
 10
41.13378869385207
 20
23.6589104166242
 30
0.0
  0
VERTEX
  5
391
  8
LAYER_1
 10
41.1198580387925
 20
23.65200758234314
 30
0.0
  0
VERTEX
  5
392
  8
LAYER_1
 10
41.10578393273251
 20
23.64544372441335
 30
0.0
  0
VERTEX
  5
393
  8
LAYER_1
 10
41.09157739791772
 20
23.6392312845733
 30
0.0
  0
VERTEX
  5
394
  8
LAYER_1
 10
41.07724945659373
 20
23.63338270456143
 30
0.0
  0
VERTEX
  5
395
  8
LAYER_1
 10
41.06281113100616
 20
23.62791042611619
 30
0.0
  0
VERTEX
  5
396
  8
LAYER_1
 10
41.04827344340059
 20
23.62282689097606
 30
0.0
  0
VERTEX
  5
397
  8
LAYER_1
 10
41.03364741602265
 20
23.61814454087947
 30
0.0
  0
VERTEX
  5
398
  8
LAYER_1
 10
41.01894407111794
 20
23.61387581756489
 30
0.0
  0
VERTEX
  5
399
  8
LAYER_1
 10
41.00417443093205
 20
23.61003316277077
 30
0.0
  0
VERTEX
  5
39A
  8
LAYER_1
 10
40.98934951771061
 20
23.60662901823557
 30
0.0
  0
VERTEX
  5
39B
  8
LAYER_1
 10
40.97448035369922
 20
23.60367582569775
 30
0.0
  0
VERTEX
  5
39C
  8
LAYER_1
 10
40.95957796114348
 20
23.60118602689575
 30
0.0
  0
VERTEX
  5
39D
  8
LAYER_1
 10
40.944653362289
 20
23.59917206356803
 30
0.0
  0
VERTEX
  5
39E
  8
LAYER_1
 10
40.9297175793814
 20
23.59764637745305
 30
0.0
  0
VERTEX
  5
39F
  8
LAYER_1
 10
40.91478163466626
 20
23.59662141028926
 30
0.0
  0
VERTEX
  5
3A0
  8
LAYER_1
 10
40.89985655038921
 20
23.59610960381512
 30
0.0
  0
VERTEX
  5
3A1
  8
LAYER_1
 10
40.88495334879585
 20
23.59612339976909
 30
0.0
  0
VERTEX
  5
3A2
  8
LAYER_1
 10
40.87008305213178
 20
23.59667523988961
 30
0.0
  0
VERTEX
  5
3A3
  8
LAYER_1
 10
39.74508305227951
 20
23.65917523980405
 30
0.0
  0
VERTEX
  5
3A4
  8
LAYER_1
 10
39.30539406533748
 20
23.65414902719896
 30
0.0
 42
0.4142135623730951
  0
VERTEX
  5
3A5
  8
LAYER_1
 10
39.09039406533748
 20
23.43914902719897
 30
0.0
 42
0.4142135623730951
  0
VERTEX
  5
3A6
  8
LAYER_1
 10
39.30539406533748
 20
23.22414902719897
 30
0.0
  0
VERTEX
  5
3A7
  8
LAYER_1
 10
39.30758305223381
 20
23.22167523982919
 30
0.0
  0
VERTEX
  5
3A8
  8
LAYER_1
 10
36.9950830522595
 20
8.03417523977695
 30
0.0
  0
VERTEX
  5
3A9
  8
LAYER_1
 10
2.370083052176483
 20
8.034175239862108
 30
0.0
  0
VERTEX
  5
3AA
  8
LAYER_1
 10
2.359015752662247
 20
8.034367717002784
 30
0.0
  0
VERTEX
  5
3AB
  8
LAYER_1
 10
2.347913201597823
 20
8.034940678149956
 30
0.0
  0
VERTEX
  5
3AC
  8
LAYER_1
 10
2.336782104395418
 20
8.03588741789142
 30
0.0
  0
VERTEX
  5
3AD
  8
LAYER_1
 10
2.325629166467235
 20
8.037201230814969
 30
0.0
  0
VERTEX
  5
3AE
  8
LAYER_1
 10
2.314461093225479
 20
8.0388754115084
 30
0.0
  0
VERTEX
  5
3AF
  8
LAYER_1
 10
2.303284590082353
 20
8.040903254559508
 30
0.0
  0
VERTEX
  5
3B0
  8
LAYER_1
 10
2.292106362450064
 20
8.043278054556088
 30
0.0
  0
VERTEX
  5
3B1
  8
LAYER_1
 10
2.280933115740814
 20
8.045993106085936
 30
0.0
  0
VERTEX
  5
3B2
  8
LAYER_1
 10
2.269771555366809
 20
8.049041703736847
 30
0.0
  0
VERTEX
  5
3B3
  8
LAYER_1
 10
2.258628386740254
 20
8.052417142096616
 30
0.0
  0
VERTEX
  5
3B4
  8
LAYER_1
 10
2.247510315273352
 20
8.056112715753038
 30
0.0
  0
VERTEX
  5
3B5
  8
LAYER_1
 10
2.236424046378308
 20
8.06012171929391
 30
0.0
  0
VERTEX
  5
3B6
  8
LAYER_1
 10
2.214373737952613
 20
8.069053194380185
 30
0.0
  0
VERTEX
  5
3B7
  8
LAYER_1
 10
2.192531104760804
 20
8.0791579240578
 30
0.0
  0
VERTEX
  5
3B8
  8
LAYER_1
 10
2.170949790100517
 20
8.090382265029119
 30
0.0
  0
VERTEX
  5
3B9
  8
LAYER_1
 10
2.149683437269387
 20
8.102672573996504
 30
0.0
  0
VERTEX
  5
3BA
  8
LAYER_1
 10
2.128785689565052
 20
8.115975207662318
 30
0.0
  0
VERTEX
  5
3BB
  8
LAYER_1
 10
2.108310190285146
 20
8.130236522728925
 30
0.0
  0
VERTEX
  5
3BC
  8
LAYER_1
 10
2.088310582727305
 20
8.145402875898688
 30
0.0
  0
VERTEX
  5
3BD
  8
LAYER_1
 10
2.068840510189167
 20
8.161420623873969
 30
0.0
  0
VERTEX
  5
3BE
  8
LAYER_1
 10
2.049953615968365
 20
8.17823612335713
 30
0.0
  0
VERTEX
  5
3BF
  8
LAYER_1
 10
2.031703543362536
 20
8.195795731050538
 30
0.0
  0
VERTEX
  5
3C0
  8
LAYER_1
 10
2.014143935669315
 20
8.214045803656552
 30
0.0
  0
VERTEX
  5
3C1
  8
LAYER_1
 10
1.99732843618634
 20
8.232932697877537
 30
0.0
  0
VERTEX
  5
3C2
  8
LAYER_1
 10
1.981310688211245
 20
8.252402770415852
 30
0.0
  0
VERTEX
  5
3C3
  8
LAYER_1
 10
1.966144335041667
 20
8.272402377973865
 30
0.0
  0
VERTEX
  5
3C4
  8
LAYER_1
 10
1.951883019975241
 20
8.292877877253936
 30
0.0
  0
VERTEX
  5
3C5
  8
LAYER_1
 10
1.938580386309602
 20
8.313775624958431
 30
0.0
  0
VERTEX
  5
3C6
  8
LAYER_1
 10
1.926290077342388
 20
8.335041977789707
 30
0.0
  0
VERTEX
  5
3C7
  8
LAYER_1
 10
1.915065736371234
 20
8.356623292450134
 30
0.0
  0
VERTEX
  5
3C8
  8
LAYER_1
 10
1.904961006693775
 20
8.378465925642072
 30
0.0
  0
VERTEX
  5
3C9
  8
LAYER_1
 10
1.896029531607648
 20
8.40051623406788
 30
0.0
  0
VERTEX
  5
3CA
  8
LAYER_1
 10
1.892020528066845
 20
8.411602502962976
 30
0.0
  0
VERTEX
  5
3CB
  8
LAYER_1
 10
1.888324954410488
 20
8.422720574429926
 30
0.0
  0
VERTEX
  5
3CC
  8
LAYER_1
 10
1.884949516050782
 20
8.433863743056525
 30
0.0
  0
VERTEX
  5
3CD
  8
LAYER_1
 10
1.881900918399932
 20
8.445025303430569
 30
0.0
  0
VERTEX
  5
3CE
  8
LAYER_1
 10
1.879185866870141
 20
8.456198550139856
 30
0.0
  0
VERTEX
  5
3CF
  8
LAYER_1
 10
1.876811066873614
 20
8.467376777772177
 30
0.0
  0
VERTEX
  5
3D0
  8
LAYER_1
 10
1.874783223822556
 20
8.47855328091533
 30
0.0
  0
VERTEX
  5
3D1
  8
LAYER_1
 10
1.873109043129172
 20
8.48972135415711
 30
0.0
  0
VERTEX
  5
3D2
  8
LAYER_1
 10
1.871795230205664
 20
8.500874292085312
 30
0.0
  0
VERTEX
  5
3D3
  8
LAYER_1
 10
1.87084849046424
 20
8.51200538928773
 30
0.0
  0
VERTEX
  5
3D4
  8
LAYER_1
 10
1.870275529317101
 20
8.52310794035216
 30
0.0
  0
SEQEND
  5
4F7
  8
LAYER_1
  0
POLYLINE
  5
84
  8
LAYER_1
 66
     1
 10
0.0
 20
0.0
 30
0.0
 70
     1
  0
VERTEX
  5
3D5
  8
LAYER_1
 10
25.81754462763044
 20
5.144668604923744
 30
0.0
  0
VERTEX
  5
3D6
  8
LAYER_1
 10
49.56754462763044
 20
5.144668604923744
 30
0.0
  0
VERTEX
  5
3D7
  8
LAYER_1
 10
49.56754462763044
 20
6.644668604923744
 30
0.0
  0
VERTEX
  5
3D8
  8
LAYER_1
 10
25.81754462763044
 20
6.644668604923744
 30
0.0
  0
SEQEND
  5
4F8
  8
LAYER_1
  0
POLYLINE
  5
85
  8
LAYER_1
 66
     1
 10
0.0
 20
0.0
 30
0.0
 70
     1
  0
VERTEX
  5
3D9
  8
LAYER_1
 10
79.07024343789965
 20
35.62772276898131
 30
0.0
  0
VERTEX
  5
3DA
  8
LAYER_1
 10
55.32024343789965
 20
35.62772276898131
 30
0.0
  0
VERTEX
  5
3DB
  8
LAYER_1
 10
55.32024343789965
 20
19.75272276898132
 30
0.0
  0
VERTEX
  5
3DC
  8
LAYER_1
 10
79.07024343789965
 20
19.75272276898132
 30
0.0
  0
SEQEND
  5
4F9
  8
LAYER_1
  0
POLYLINE
  5
86
  8
LAYER_1
 66
     1
 10
0.0
 20
0.0
 30
0.0
 70
     1
  0
VERTEX
  5
3DD
  8
LAYER_1
 10
79.19524343789965
 20
20.25272276898132
 30
0.0
  0
VERTEX
  5
3DE
  8
LAYER_1
 10
55.19524343789965
 20
20.25272276898132
 30
0.0
  0
VERTEX
  5
3DF
  8
LAYER_1
 10
55.19524343789965
 20
19.75272276898132
 30
0.0
  0
VERTEX
  5
3E0
  8
LAYER_1
 10
79.19524343789965
 20
19.75272276898132
 30
0.0
  0
SEQEND
  5
4FA
  8
LAYER_1
  0
POLYLINE
  5
87
  8
LAYER_1
 66
     1
 10
0.0
 20
0.0
 30
0.0
 70
     1
  0
VERTEX
  5
3E1
  8
LAYER_1
 10
73.19524343789965
 20
25.00272276898132
 30
0.0
  0
VERTEX
  5
3E2
  8
LAYER_1
 10
61.19524343789965
 20
25.00272276898132
 30
0.0
  0
VERTEX
  5
3E3
  8
LAYER_1
 10
61.19524343789965
 20
22.00272276898132
 30
0.0
  0
VERTEX
  5
3E4
  8
LAYER_1
 10
73.19524343789965
 20
22.00272276898132
 30
0.0
  0
SEQEND
  5
4FB
  8
LAYER_1
  0
POLYLINE
  5
88
  8
LAYER_1
 66
     1
 10
0.0
 20
0.0
 30
0.0
 70
     1
  0
VERTEX
  5
3E5
  8
LAYER_1
 10
42.05670070653596
 20
4.159175239908024
 30
0.0
  0
VERTEX
  5
3E6
  8
LAYER_1
 10
52.18258305210318
 20
4.159175239908024
 30
0.0
  0
VERTEX
  5
3E7
  8
LAYER_1
 10
52.18258305210318
 20
9.034175239908024
 30
0.0
  0
VERTEX
  5
3E8
  8
LAYER_1
 10
41.30758305210318
 20
9.034175239908024
 30
0.0
  0
VERTEX
  5
3E9
  8
LAYER_1
 10
41.30758305210318
 20
9.04715737532048
 30
0.0
  0
VERTEX
  5
3EA
  8
LAYER_1
 10
41.30758305210318
 20
13.59666960230351
 30
0.0
  0
VERTEX
  5
3EB
  8
LAYER_1
 10
42.05389587951063
 20
14.72165319212145
 30
0.0
  0
VERTEX
  5
3EC
  8
LAYER_1
 10
42.05395700823783
 20
14.72167523990802
 30
0.0
  0
VERTEX
  5
3ED
  8
LAYER_1
 10
52.18258305210318
 20
14.72167523990802
 30
0.0
  0
VERTEX
  5
3EE
  8
LAYER_1
 10
52.18258305210318
 20
19.59667523990802
 30
0.0
  0
VERTEX
  5
3EF
  8
LAYER_1
 10
41.30758305210318
 20
19.59667523990802
 30
0.0
  0
VERTEX
  5
3F0
  8
LAYER_1
 10
41.30758305210318
 20
19.61708859108923
 30
0.0
  0
VERTEX
  5
3F1
  8
LAYER_1
 10
41.30758305210318
 20
23.03393746475251
 30
0.0
  0
VERTEX
  5
3F2
  8
LAYER_1
 10
41.30758305210318
 20
23.03417523990802
 30
0.0
  0
VERTEX
  5
3F3
  8
LAYER_1
 10
42.30758305210318
 20
23.03417523990802
 30
0.0
  0
VERTEX
  5
3F4
  8
LAYER_1
 10
42.30758305210318
 20
23.78417523990802
 30
0.0
  0
VERTEX
  5
3F5
  8
LAYER_1
 10
42.30779359776503
 20
23.78417523990802
 30
0.0
  0
VERTEX
  5
3F6
  8
LAYER_1
 10
54.05758305210318
 20
23.78417523990802
 30
0.0
  0
VERTEX
  5
3F7
  8
LAYER_1
 10
54.05758305210318
 20
0.0341752399080235
 30
0.0
  0
VERTEX
  5
3F8
  8
LAYER_1
 10
42.31333796052385
 20
0.0341752399080235
 30
0.0
  0
VERTEX
  5
3F9
  8
LAYER_1
 10
42.30758305210318
 20
0.0341752399080235
 30
0.0
  0
VERTEX
  5
3FA
  8
LAYER_1
 10
42.30758305210318
 20
0.7841752399080235
 30
0.0
  0
VERTEX
  5
3FB
  8
LAYER_1
 10
41.30758305210318
 20
0.7841752399080235
 30
0.0
  0
VERTEX
  5
3FC
  8
LAYER_1
 10
41.30758305210318
 20
0.7903194378998535
 30
0.0
  0
VERTEX
  5
3FD
  8
LAYER_1
 10
41.30758305210318
 20
3.034109142990133
 30
0.0
  0
VERTEX
  5
3FE
  8
LAYER_1
 10
41.30758305210318
 20
3.034175239908024
 30
0.0
  0
VERTEX
  5
3FF
  8
LAYER_1
 10
42.05609835271076
 20
4.158275598216164
 30
0.0
  0
SEQEND
  5
4FC
  8
LAYER_1
  0
POLYLINE
  5
89
  8
LAYER_1
 66
     1
 10
0.0
 20
0.0
 30
0.0
 70
     1
  0
VERTEX
  5
400
  8
LAYER_1
 10
68.53392534146883
 20
45.8706391747421
 30
0.0
  0
VERTEX
  5
401
  8
LAYER_1
 10
92.53392534146883
 20
45.8706391747421
 30
0.0
  0
VERTEX
  5
402
  8
LAYER_1
 10
92.53392534146883
 20
46.3706391747421
 30
0.0
  0
VERTEX
  5
403
  8
LAYER_1
 10
68.53392534146883
 20
46.3706391747421
 30
0.0
  0
SEQEND
  5
4FD
  8
LAYER_1
  0
POLYLINE
  5
8A
  8
LAYER_1
 66
     1
 10
0.0
 20
0.0
 30
0.0
 70
     1
  0
VERTEX
  5
404
  8
LAYER_1
 10
92.40892534146883
 20
38.88959350272568
 30
0.0
  0
VERTEX
  5
405
  8
LAYER_1
 10
92.40892534146883
 20
46.3706391747421
 30
0.0
  0
VERTEX
  5
406
  8
LAYER_1
 10
68.65892534146883
 20
46.3706391747421
 30
0.0
  0
VERTEX
  5
407
  8
LAYER_1
 10
68.65892534146883
 20
38.90166284324732
 30
0.0
  0
VERTEX
  5
408
  8
LAYER_1
 10
68.65892534146883
 20
38.8706391747421
 30
0.0
  0
VERTEX
  5
409
  8
LAYER_1
 10
69.53392534146883
 20
38.8706391747421
 30
0.0
  0
VERTEX
  5
40A
  8
LAYER_1
 10
69.53392534146883
 20
36.8706391747421
 30
0.0
  0
VERTEX
  5
40B
  8
LAYER_1
 10
69.54545673826044
 20
36.8706391747421
 30
0.0
  0
VERTEX
  5
40C
  8
LAYER_1
 10
91.52604130946978
 20
36.8706391747421
 30
0.0
  0
VERTEX
  5
40D
  8
LAYER_1
 10
91.53392534146883
 20
36.8706391747421
 30
0.0
  0
VERTEX
  5
40E
  8
LAYER_1
 10
91.53392534146883
 20
38.8706391747421
 30
0.0
  0
VERTEX
  5
40F
  8
LAYER_1
 10
92.40892534146883
 20
38.8706391747421
 30
0.0
  0
SEQEND
  5
4FE
  8
LAYER_1
  0
POLYLINE
  5
8B
  8
LAYER_1
 66
     1
 10
0.0
 20
0.0
 30
0.0
 70
     1
  0
VERTEX
  5
410
  8
LAYER_1
 10
2.029081173654234
 20
0.6894400513858656
 30
0.0
  0
VERTEX
  5
411
  8
LAYER_1
 10
23.77908117365423
 20
0.6894400513858656
 30
0.0
  0
VERTEX
  5
412
  8
LAYER_1
 10
23.77908117365423
 20
2.689440051385866
 30
0.0
  0
VERTEX
  5
413
  8
LAYER_1
 10
2.029081173654234
 20
2.689440051385866
 30
0.0
  0
SEQEND
  5
4FF
  8
LAYER_1
  0
POLYLINE
  5
8C
  8
LAYER_1
 66
     1
 10
0.0
 20
0.0
 30
0.0
 70
     1
  0
VERTEX
  5
414
  8
LAYER_1
 10
2.060959333246885
 20
4.191605524154596
 30
0.0
  0
VERTEX
  5
415
  8
LAYER_1
 10
23.81095933324688
 20
4.191605524154596
 30
0.0
  0
VERTEX
  5
416
  8
LAYER_1
 10
23.81095933324688
 20
6.191605524154596
 30
0.0
  0
VERTEX
  5
417
  8
LAYER_1
 10
2.060959333246885
 20
6.191605524154596
 30
0.0
  0
SEQEND
  5
500
  8
LAYER_1
  0
POLYLINE
  5
8D
  8
LAYER_1
 66
     1
 10
0.0
 20
0.0
 30
0.0
 70
     1
  0
VERTEX
  5
418
  8
LAYER_1
 10
55.40426973721085
 20
3.797689894842328
 30
0.0
  0
VERTEX
  5
419
  8
LAYER_1
 10
79.15426973721085
 20
3.797689894842328
 30
0.0
  0
VERTEX
  5
41A
  8
LAYER_1
 10
79.15426973721085
 20
18.29768989484233
 30
0.0
  0
VERTEX
  5
41B
  8
LAYER_1
 10
55.40426973721085
 20
18.29768989484233
 30
0.0
  0
SEQEND
  5
501
  8
LAYER_1
  0
POLYLINE
  5
8E
  8
LAYER_1
 66
     1
 10
0.0
 20
0.0
 30
0.0
 70
     1
  0
VERTEX
  5
41C
  8
LAYER_1
 10
90.70847293069863
 20
11.771703670672
 30
0.0
  0
VERTEX
  5
41D
  8
LAYER_1
 10
90.70847293069863
 20
35.521703670672
 30
0.0
  0
VERTEX
  5
41E
  8
LAYER_1
 10
80.83347293069863
 20
35.521703670672
 30
0.0
  0
VERTEX
  5
41F
  8
LAYER_1
 10
80.83347293069863
 20
11.771703670672
 30
0.0
  0
SEQEND
  5
502
  8
LAYER_1
  0
POLYLINE
  5
8F
  8
LAYER_1
 66
     1
 10
0.0
 20
0.0
 30
0.0
 70
     1
  0
VERTEX
  5
420
  8
LAYER_1
 10
87.95847293069863
 20
13.271703670672
 30
0.0
 42
0.4142135623730951
  0
VERTEX
  5
421
  8
LAYER_1
 10
88.45847293069863
 20
12.771703670672
 30
0.0
 42
0.4142135623730951
  0
VERTEX
  5
422
  8
LAYER_1
 10
88.95847293069863
 20
13.271703670672
 30
0.0
 42
0.4142135623730951
  0
VERTEX
  5
423
  8
LAYER_1
 10
88.45847293069863
 20
13.771703670672
 30
0.0
 42
0.4142135623730951
  0
SEQEND
  5
503
  8
LAYER_1
  0
POLYLINE
  5
90
  8
LAYER_1
 66
     1
 10
0.0
 20
0.0
 30
0.0
 70
     1
  0
VERTEX
  5
424
  8
LAYER_1
 10
93.79437618680382
 20
11.89498169196192
 30
0.0
  0
VERTEX
  5
425
  8
LAYER_1
 10
93.79437618680382
 20
35.64498169196192
 30
0.0
  0
VERTEX
  5
426
  8
LAYER_1
 10
92.29437618680382
 20
35.64498169196192
 30
0.0
  0
VERTEX
  5
427
  8
LAYER_1
 10
92.29437618680382
 20
11.89498169196192
 30
0.0
  0
SEQEND
  5
504
  8
LAYER_1
  0
POLYLINE
  5
91
  8
LAYER_1
 66
     1
 10
0.0
 20
0.0
 30
0.0
 70
     1
  0
VERTEX
  5
428
  8
LAYER_1
 10
55.40426973721085
 20
0.8299378597765994
 30
0.0
  0
VERTEX
  5
429
  8
LAYER_1
 10
79.15426973721085
 20
0.8299378597765994
 30
0.0
  0
VERTEX
  5
42A
  8
LAYER_1
 10
79.15426973721085
 20
2.329937859776599
 30
0.0
  0
VERTEX
  5
42B
  8
LAYER_1
 10
55.40426973721085
 20
2.329937859776599
 30
0.0
  0
SEQEND
  5
505
  8
LAYER_1
  0
POLYLINE
  5
92
  8
LAYER_1
 66
     1
 10
0.0
 20
0.0
 30
0.0
 70
     1
  0
VERTEX
  5
42C
  8
LAYER_1
 10
102.1774150515887
 20
26.49913810533709
 30
0.0
  0
VERTEX
  5
42D
  8
LAYER_1
 10
125.9274150515887
 20
26.49913810533709
 30
0.0
  0
VERTEX
  5
42E
  8
LAYER_1
 10
125.9274150515887
 20
45.49913810533709
 30
0.0
  0
VERTEX
  5
42F
  8
LAYER_1
 10
102.1774150515887
 20
45.49913810533709
 30
0.0
  0
SEQEND
  5
506
  8
LAYER_1
  0
POLYLINE
  5
93
  8
LAYER_1
 66
     1
 10
0.0
 20
0.0
 30
0.0
 70
     1
  0
VERTEX
  5
430
  8
LAYER_1
 10
101.870936106692
 20
24.09538888805469
 30
0.0
  0
VERTEX
  5
431
  8
LAYER_1
 10
101.870936106692
 20
0.3453888880546856
 30
0.0
  0
VERTEX
  5
432
  8
LAYER_1
 10
137.308436106692
 20
0.3453888880546856
 30
0.0
  0
VERTEX
  5
433
  8
LAYER_1
 10
137.308436106692
 20
24.09538888805469
 30
0.0
  0
SEQEND
  5
507
  8
LAYER_1
  0
POLYLINE
  5
94
  8
LAYER_1
 66
     1
 10
0.0
 20
0.0
 30
0.0
 70
     1
  0
VERTEX
  5
434
  8
LAYER_1
 10
110.870936106692
 20
10.53288888805469
 30
0.0
 42
0.4142135623730951
  0
VERTEX
  5
435
  8
LAYER_1
 10
109.870936106692
 20
9.5328888880547
 30
0.0
  0
VERTEX
  5
436
  8
LAYER_1
 10
109.870936106692
 20
4.3453888880547
 30
0.0
 42
0.4142135623730951
  0
VERTEX
  5
437
  8
LAYER_1
 10
110.870936106692
 20
3.3453888880547
 30
0.0
  0
VERTEX
  5
438
  8
LAYER_1
 10
128.683436106692
 20
3.345388888054686
 30
0.0
 42
0.4142135623730951
  0
VERTEX
  5
439
  8
LAYER_1
 10
129.683436106692
 20
4.345388888054686
 30
0.0
  0
VERTEX
  5
43A
  8
LAYER_1
 10
129.683436106692
 20
9.532888888054686
 30
0.0
 42
0.4142135623730951
  0
VERTEX
  5
43B
  8
LAYER_1
 10
128.683436106692
 20
10.53288888805469
 30
0.0
  0
SEQEND
  5
508
  8
LAYER_1
  0
POLYLINE
  5
95
  8
LAYER_1
 66
     1
 10
0.0
 20
0.0
 30
0.0
 70
     1
  0
VERTEX
  5
43C
  8
LAYER_1
 10
110.870936106692
 20
21.09538888805469
 30
0.0
 42
0.4142135623730951
  0
VERTEX
  5
43D
  8
LAYER_1
 10
109.870936106692
 20
20.0953888880547
 30
0.0
  0
VERTEX
  5
43E
  8
LAYER_1
 10
109.870936106692
 20
14.9078888880547
 30
0.0
 42
0.4142135623730951
  0
VERTEX
  5
43F
  8
LAYER_1
 10
110.870936106692
 20
13.9078888880547
 30
0.0
  0
VERTEX
  5
440
  8
LAYER_1
 10
128.683436106692
 20
13.90788888805469
 30
0.0
 42
0.4142135623730951
  0
VERTEX
  5
441
  8
LAYER_1
 10
129.683436106692
 20
14.90788888805469
 30
0.0
  0
VERTEX
  5
442
  8
LAYER_1
 10
129.683436106692
 20
20.09538888805469
 30
0.0
 42
0.4142135623730951
  0
VERTEX
  5
443
  8
LAYER_1
 10
128.683436106692
 20
21.09538888805469
 30
0.0
  0
SEQEND
  5
509
  8
LAYER_1
  0
POLYLINE
  5
96
  8
LAYER_1
 66
     1
 10
0.0
 20
0.0
 30
0.0
 70
     1
  0
VERTEX
  5
444
  8
LAYER_1
 10
153.624037284614
 20
37.86596262223149
 30
0.0
  0
VERTEX
  5
445
  8
LAYER_1
 10
151.9052372846066
 20
42.49096262223539
 30
0.0
  0
VERTEX
  5
446
  8
LAYER_1
 10
150.3115372845689
 20
42.49096262221092
 30
0.0
  0
VERTEX
  5
447
  8
LAYER_1
 10
150.3115372845556
 20
41.61596262220342
 30
0.0
  0
VERTEX
  5
448
  8
LAYER_1
 10
146.8740372845772
 20
41.61596262221761
 30
0.0
  0
VERTEX
  5
449
  8
LAYER_1
 10
146.8740372845884
 20
37.3034626222226
 30
0.0
  0
VERTEX
  5
44A
  8
LAYER_1
 10
151.1240372845808
 20
34.74096262221698
 30
0.0
  0
SEQEND
  5
50A
  8
LAYER_1
  0
POLYLINE
  5
97
  8
LAYER_1
 66
     1
 10
0.0
 20
0.0
 30
0.0
 70
     1
  0
VERTEX
  5
44B
  8
LAYER_1
 10
146.8740372845713
 20
29.36596262221438
 30
0.0
  0
VERTEX
  5
44C
  8
LAYER_1
 10
149.7802372845693
 20
34.49096262221317
 30
0.0
  0
VERTEX
  5
44D
  8
LAYER_1
 10
146.4365372845824
 20
36.36596262221916
 30
0.0
  0
VERTEX
  5
44E
  8
LAYER_1
 10
142.4365372845765
 20
36.36596262221631
 30
0.0
  0
VERTEX
  5
44F
  8
LAYER_1
 10
142.4365372845727
 20
31.74096262221438
 30
0.0
  0
SEQEND
  5
50B
  8
LAYER_1
  0
POLYLINE
  5
98
  8
LAYER_1
 66
     1
 10
0.0
 20
0.0
 30
0.0
 70
     1
  0
VERTEX
  5
450
  8
LAYER_1
 10
135.3435372845747
 20
42.49096262221675
 30
0.0
  0
VERTEX
  5
451
  8
LAYER_1
 10
129.811537284573
 20
42.49096262221162
 30
0.0
  0
VERTEX
  5
452
  8
LAYER_1
 10
129.8115372845733
 20
37.67846262221385
 30
0.0
  0
VERTEX
  5
453
  8
LAYER_1
 10
129.6240372845735
 20
37.67846262221472
 30
0.0
  0
VERTEX
  5
454
  8
LAYER_1
 10
129.6240372845733
 20
36.11596262221403
 30
0.0
  0
VERTEX
  5
455
  8
LAYER_1
 10
134.1865372845745
 20
36.11596262221586
 30
0.0
  0
VERTEX
  5
456
  8
LAYER_1
 10
134.1865372845736
 20
31.80346262221472
 30
0.0
  0
VERTEX
  5
457
  8
LAYER_1
 10
138.4365372845725
 20
29.36596262221441
 30
0.0
  0
VERTEX
  5
458
  8
LAYER_1
 10
141.4677372845678
 20
34.42846262221175
 30
0.0
  0
VERTEX
  5
459
  8
LAYER_1
 10
135.3435372845766
 20
38.49096262221894
 30
0.0
  0
SEQEND
  5
50C
  8
LAYER_1
  0
POLYLINE
  5
99
  8
LAYER_1
 66
     1
 10
0.0
 20
0.0
 30
0.0
 70
     1
  0
VERTEX
  5
45A
  8
LAYER_1
 10
156.3115372845839
 20
41.11596262221982
 30
0.0
  0
VERTEX
  5
45B
  8
LAYER_1
 10
156.3115372845838
 20
39.24096262221923
 30
0.0
  0
VERTEX
  5
45C
  8
LAYER_1
 10
155.1552372845727
 20
28.24096262221455
 30
0.0
  0
VERTEX
  5
45D
  8
LAYER_1
 10
155.1527989315219
 20
28.21946708172084
 30
0.0
  0
VERTEX
  5
45E
  8
LAYER_1
 10
155.1499802069157
 20
28.19778554861816
 30
0.0
  0
VERTEX
  5
45F
  8
LAYER_1
 10
155.1467781856711
 20
28.17593669420284
 30
0.0
  0
VERTEX
  5
460
  8
LAYER_1
 10
155.1431899427052
 20
28.15393918977122
 30
0.0
  0
VERTEX
  5
461
  8
LAYER_1
 10
155.1392125529354
 20
28.13181170661965
 30
0.0
  0
VERTEX
  5
462
  8
LAYER_1
 10
155.1348430912787
 20
28.10957291604447
 30
0.0
  0
VERTEX
  5
463
  8
LAYER_1
 10
155.1300786326524
 20
28.08724148934201
 30
0.0
  0
VERTEX
  5
464
  8
LAYER_1
 10
155.1249162519735
 20
28.06483609780863
 30
0.0
  0
VERTEX
  5
465
  8
LAYER_1
 10
155.1193530241593
 20
28.04237541274065
 30
0.0
  0
VERTEX
  5
466
  8
LAYER_1
 10
155.113386024127
 20
28.01987810543442
 30
0.0
  0
VERTEX
  5
467
  8
LAYER_1
 10
155.1070123267936
 20
27.99736284718628
 30
0.0
  0
VERTEX
  5
468
  8
LAYER_1
 10
155.1002290070764
 20
27.97484830929258
 30
0.0
  0
VERTEX
  5
469
  8
LAYER_1
 10
155.0930331398926
 20
27.95235316304966
 30
0.0
  0
VERTEX
  5
46A
  8
LAYER_1
 10
155.0854218001593
 20
27.92989607975385
 30
0.0
  0
VERTEX
  5
46B
  8
LAYER_1
 10
155.0773920627936
 20
27.90749573070148
 30
0.0
  0
VERTEX
  5
46C
  8
LAYER_1
 10
155.0689410027129
 20
27.88517078718892
 30
0.0
  0
VERTEX
  5
46D
  8
LAYER_1
 10
155.0600656948342
 20
27.8629399205125
 30
0.0
  0
VERTEX
  5
46E
  8
LAYER_1
 10
155.0507632140747
 20
27.84082180196855
 30
0.0
  0
VERTEX
  5
46F
  8
LAYER_1
 10
155.0410306353515
 20
27.81883510285343
 30
0.0
  0
VERTEX
  5
470
  8
LAYER_1
 10
155.030865033582
 20
27.79699849446347
 30
0.0
  0
VERTEX
  5
471
  8
LAYER_1
 10
155.0202634836831
 20
27.77533064809501
 30
0.0
  0
VERTEX
  5
472
  8
LAYER_1
 10
155.0092230605721
 20
27.75385023504439
 30
0.0
  0
VERTEX
  5
473
  8
LAYER_1
 10
154.9977408391663
 20
27.73257592660795
 30
0.0
  0
VERTEX
  5
474
  8
LAYER_1
 10
154.9858138943826
 20
27.71152639408204
 30
0.0
  0
VERTEX
  5
475
  8
LAYER_1
 10
154.9734393011384
 20
27.690720308763
 30
0.0
  0
VERTEX
  5
476
  8
LAYER_1
 10
154.9606141343507
 20
27.67017634194716
 30
0.0
  0
VERTEX
  5
477
  8
LAYER_1
 10
154.9473354689368
 20
27.64991316493087
 30
0.0
  0
VERTEX
  5
478
  8
LAYER_1
 10
154.9336003798138
 20
27.62994944901047
 30
0.0
  0
VERTEX
  5
479
  8
LAYER_1
 10
154.9194059418989
 20
27.6103038654823
 30
0.0
  0
VERTEX
  5
47A
  8
LAYER_1
 10
154.9047492301092
 20
27.59099508564271
 30
0.0
  0
VERTEX
  5
47B
  8
LAYER_1
 10
154.8896273193621
 20
27.57204178078803
 30
0.0
  0
VERTEX
  5
47C
  8
LAYER_1
 10
154.8740372845745
 20
27.55346262221459
 30
0.0
  0
VERTEX
  5
47D
  8
LAYER_1
 10
154.8519011195325
 20
27.52846888723039
 30
0.0
  0
VERTEX
  5
47E
  8
LAYER_1
 10
154.8290569084137
 20
27.50408554681819
 30
0.0
  0
VERTEX
  5
47F
  8
LAYER_1
 10
154.8055355480197
 20
27.48032460577876
 30
0.0
  0
VERTEX
  5
480
  8
LAYER_1
 10
154.7813679351519
 20
27.45719806891286
 30
0.0
  0
VERTEX
  5
481
  8
LAYER_1
 10
154.7565849666117
 20
27.43471794102125
 30
0.0
  0
VERTEX
  5
482
  8
LAYER_1
 10
154.7312175392008
 20
27.4128962269047
 30
0.0
  0
VERTEX
  5
483
  8
LAYER_1
 10
154.7052965497205
 20
27.39174493136396
 30
0.0
  0
VERTEX
  5
484
  8
LAYER_1
 10
154.6788528949724
 20
27.3712760591998
 30
0.0
  0
VERTEX
  5
485
  8
LAYER_1
 10
154.6519174717581
 20
27.35150161521298
 30
0.0
  0
VERTEX
  5
486
  8
LAYER_1
 10
154.6245211768789
 20
27.33243360420426
 30
0.0
  0
VERTEX
  5
487
  8
LAYER_1
 10
154.5966949071363
 20
27.31408403097441
 30
0.0
  0
VERTEX
  5
488
  8
LAYER_1
 10
154.568469559332
 20
27.29646490032418
 30
0.0
  0
VERTEX
  5
489
  8
LAYER_1
 10
154.5398760302674
 20
27.27958821705434
 30
0.0
  0
VERTEX
  5
48A
  8
LAYER_1
 10
154.510945216744
 20
27.26346598596565
 30
0.0
  0
VERTEX
  5
48B
  8
LAYER_1
 10
154.4817080155632
 20
27.24811021185888
 30
0.0
  0
VERTEX
  5
48C
  8
LAYER_1
 10
154.4521953235266
 20
27.23353289953477
 30
0.0
  0
VERTEX
  5
48D
  8
LAYER_1
 10
154.4224380374357
 20
27.21974605379411
 30
0.0
  0
VERTEX
  5
48E
  8
LAYER_1
 10
154.392467054092
 20
27.20676167943764
 30
0.0
  0
VERTEX
  5
48F
  8
LAYER_1
 10
154.362313270297
 20
27.19459178126613
 30
0.0
  0
VERTEX
  5
490
  8
LAYER_1
 10
154.3320075828521
 20
27.18324836408035
 30
0.0
  0
VERTEX
  5
491
  8
LAYER_1
 10
154.3015808885589
 20
27.17274343268105
 30
0.0
  0
VERTEX
  5
492
  8
LAYER_1
 10
154.2710640842189
 20
27.16308899186899
 30
0.0
  0
VERTEX
  5
493
  8
LAYER_1
 10
154.2404880666335
 20
27.15429704644494
 30
0.0
  0
VERTEX
  5
494
  8
LAYER_1
 10
154.2098837326043
 20
27.14637960120966
 30
0.0
  0
VERTEX
  5
495
  8
LAYER_1
 10
154.1792819789329
 20
27.13934866096391
 30
0.0
  0
VERTEX
  5
496
  8
LAYER_1
 10
154.1487137024205
 20
27.13321623050846
 30
0.0
  0
VERTEX
  5
497
  8
LAYER_1
 10
154.1182097998688
 20
27.12799431464406
 30
0.0
  0
VERTEX
  5
498
  8
LAYER_1
 10
154.0878011680793
 20
27.12369491817148
 30
0.0
  0
VERTEX
  5
499
  8
LAYER_1
 10
154.0575187038534
 20
27.12033004589148
 30
0.0
  0
VERTEX
  5
49A
  8
LAYER_1
 10
154.0273933039927
 20
27.11791170260483
 30
0.0
  0
VERTEX
  5
49B
  8
LAYER_1
 10
153.9974558652987
 20
27.11645189311227
 30
0.0
  0
VERTEX
  5
49C
  8
LAYER_1
 10
153.9677372845728
 20
27.11596262221459
 30
0.0
  0
VERTEX
  5
49D
  8
LAYER_1
 10
129.6865372845735
 20
27.11596262221459
 30
0.0
  0
VERTEX
  5
49E
  8
LAYER_1
 10
129.6574355110618
 20
27.11633741081334
 30
0.0
  0
VERTEX
  5
49F
  8
LAYER_1
 10
129.6279208545299
 20
27.11746066981458
 30
0.0
  0
VERTEX
  5
4A0
  8
LAYER_1
 10
129.5980333445605
 20
27.11933073902583
 30
0.0
  0
VERTEX
  5
4A1
  8
LAYER_1
 10
129.5678130107364
 20
27.12194595825457
 30
0.0
  0
VERTEX
  5
4A2
  8
LAYER_1
 10
129.5372998826403
 20
27.12530466730831
 30
0.0
  0
VERTEX
  5
4A3
  8
LAYER_1
 10
129.506533989855
 20
27.12940520599456
 30
0.0
  0
VERTEX
  5
4A4
  8
LAYER_1
 10
129.4755553619632
 20
27.1342459141208
 30
0.0
  0
VERTEX
  5
4A5
  8
LAYER_1
 10
129.4444040285476
 20
27.13982513149454
 30
0.0
  0
VERTEX
  5
4A6
  8
LAYER_1
 10
129.4131200191911
 20
27.14614119792328
 30
0.0
  0
VERTEX
  5
4A7
  8
LAYER_1
 10
129.3817433634762
 20
27.15319245321452
 30
0.0
  0
VERTEX
  5
4A8
  8
LAYER_1
 10
129.3503140909858
 20
27.16097723717576
 30
0.0
  0
VERTEX
  5
4A9
  8
LAYER_1
 10
129.3188722313027
 20
27.16949388961451
 30
0.0
  0
VERTEX
  5
4AA
  8
LAYER_1
 10
129.2874578140095
 20
27.17874075033825
 30
0.0
  0
VERTEX
  5
4AB
  8
LAYER_1
 10
129.2561108686889
 20
27.18871615915449
 30
0.0
  0
VERTEX
  5
4AC
  8
LAYER_1
 10
129.2248714249238
 20
27.19941845587073
 30
0.0
  0
VERTEX
  5
4AD
  8
LAYER_1
 10
129.1937795122969
 20
27.21084598029447
 30
0.0
  0
VERTEX
  5
4AE
  8
LAYER_1
 10
129.1628751603908
 20
27.22299707223321
 30
0.0
  0
VERTEX
  5
4AF
  8
LAYER_1
 10
129.1321983987885
 20
27.23587007149445
 30
0.0
  0
VERTEX
  5
4B0
  8
LAYER_1
 10
129.1017892570725
 20
27.2494633178857
 30
0.0
  0
VERTEX
  5
4B1
  8
LAYER_1
 10
129.0716877648256
 20
27.26377515121445
 30
0.0
  0
VERTEX
  5
4B2
  8
LAYER_1
 10
129.0419339516307
 20
27.27880391128819
 30
0.0
  0
VERTEX
  5
4B3
  8
LAYER_1
 10
129.0125678470703
 20
27.29454793791444
 30
0.0
  0
VERTEX
  5
4B4
  8
LAYER_1
 10
128.9836294807273
 20
27.3110055709007
 30
0.0
  0
VERTEX
  5
4B5
  8
LAYER_1
 10
128.9551588821844
 20
27.32817515005446
 30
0.0
  0
VERTEX
  5
4B6
  8
LAYER_1
 10
128.9271960810243
 20
27.34605501518321
 30
0.0
  0
VERTEX
  5
4B7
  8
LAYER_1
 10
128.8997811068298
 20
27.36464350609447
 30
0.0
  0
VERTEX
  5
4B8
  8
LAYER_1
 10
128.8729539891837
 20
27.38393896259574
 30
0.0
  0
VERTEX
  5
4B9
  8
LAYER_1
 10
128.8467547576685
 20
27.4039397244945
 30
0.0
  0
VERTEX
  5
4BA
  8
LAYER_1
 10
128.8212234418673
 20
27.42464413159826
 30
0.0
  0
VERTEX
  5
4BB
  8
LAYER_1
 10
128.7964000713625
 20
27.44605052371453
 30
0.0
  0
VERTEX
  5
4BC
  8
LAYER_1
 10
128.772324675737
 20
27.46815724065081
 30
0.0
  0
VERTEX
  5
4BD
  8
LAYER_1
 10
128.7490372845735
 20
27.49096262221459
 30
0.0
  0
VERTEX
  5
4BE
  8
LAYER_1
 10
128.7306191957809
 20
27.51020669841428
 30
0.0
  0
VERTEX
  5
4BF
  8
LAYER_1
 10
128.7128545184328
 20
27.52997674315334
 30
0.0
  0
VERTEX
  5
4C0
  8
LAYER_1
 10
128.6957337337315
 20
27.55024721392493
 30
0.0
  0
VERTEX
  5
4C1
  8
LAYER_1
 10
128.6792473228799
 20
27.57099256822222
 30
0.0
  0
VERTEX
  5
4C2
  8
LAYER_1
 10
128.6633857670805
 20
27.59218726353836
 30
0.0
  0
VERTEX
  5
4C3
  8
LAYER_1
 10
128.6481395475358
 20
27.61380575736651
 30
0.0
  0
VERTEX
  5
4C4
  8
LAYER_1
 10
128.6334991454485
 20
27.63582250719985
 30
0.0
  0
VERTEX
  5
4C5
  8
LAYER_1
 10
128.6194550420213
 20
27.65821197053153
 30
0.0
  0
VERTEX
  5
4C6
  8
LAYER_1
 10
128.6059977184567
 20
27.6809486048547
 30
0.0
  0
VERTEX
  5
4C7
  8
LAYER_1
 10
128.5931176559573
 20
27.70400686766254
 30
0.0
  0
VERTEX
  5
4C8
  8
LAYER_1
 10
128.5808053357259
 20
27.72736121644821
 30
0.0
  0
VERTEX
  5
4C9
  8
LAYER_1
 10
128.5690512389648
 20
27.75098610870486
 30
0.0
  0
VERTEX
  5
4CA
  8
LAYER_1
 10
128.5578458468769
 20
27.77485600192566
 30
0.0
  0
VERTEX
  5
4CB
  8
LAYER_1
 10
128.5471796406648
 20
27.79894535360378
 30
0.0
  0
VERTEX
  5
4CC
  8
LAYER_1
 10
128.5370431015309
 20
27.82322862123236
 30
0.0
  0
VERTEX
  5
4CD
  8
LAYER_1
 10
128.527426710678
 20
27.84768026230459
 30
0.0
  0
VERTEX
  5
4CE
  8
LAYER_1
 10
128.5183209493087
 20
27.8722747343136
 30
0.0
  0
VERTEX
  5
4CF
  8
LAYER_1
 10
128.5097162986255
 20
27.89698649475258
 30
0.0
  0
VERTEX
  5
4D0
  8
LAYER_1
 10
128.5016032398311
 20
27.92179000111468
 30
0.0
  0
VERTEX
  5
4D1
  8
LAYER_1
 10
128.4939722541281
 20
27.94665971089306
 30
0.0
  0
VERTEX
  5
4D2
  8
LAYER_1
 10
128.4868138227191
 20
27.97157008158089
 30
0.0
  0
VERTEX
  5
4D3
  8
LAYER_1
 10
128.4801184268068
 20
27.99649557067131
 30
0.0
  0
VERTEX
  5
4D4
  8
LAYER_1
 10
128.4738765475937
 20
28.02141063565752
 30
0.0
  0
VERTEX
  5
4D5
  8
LAYER_1
 10
128.4680786662825
 20
28.04628973403264
 30
0.0
  0
VERTEX
  5
4D6
  8
LAYER_1
 10
128.4627152640757
 20
28.07110732328987
 30
0.0
  0
VERTEX
  5
4D7
  8
LAYER_1
 10
128.457776822176
 20
28.09583786092234
 30
0.0
  0
VERTEX
  5
4D8
  8
LAYER_1
 10
128.4532538217861
 20
28.12045580442323
 30
0.0
  0
VERTEX
  5
4D9
  8
LAYER_1
 10
128.4491367441084
 20
28.1449356112857
 30
0.0
  0
VERTEX
  5
4DA
  8
LAYER_1
 10
128.4454160703457
 20
28.1692517390029
 30
0.0
  0
VERTEX
  5
4DB
  8
LAYER_1
 10
128.4420822817006
 20
28.19337864506802
 30
0.0
  0
VERTEX
  5
4DC
  8
LAYER_1
 10
128.4391258593757
 20
28.21729078697419
 30
0.0
  0
VERTEX
  5
4DD
  8
LAYER_1
 10
128.4365372845735
 20
28.24096262221458
 30
0.0
  0
VERTEX
  5
4DE
  8
LAYER_1
 10
127.3115372845735
 20
39.24096262221454
 30
0.0
  0
VERTEX
  5
4DF
  8
LAYER_1
 10
127.3115372845735
 20
41.11596262221467
 30
0.0
  0
VERTEX
  5
4E0
  8
LAYER_1
 10
128.9990372845734
 20
43.61596262221394
 30
0.0
  0
VERTEX
  5
4E1
  8
LAYER_1
 10
154.5615372845737
 20
43.61596262221432
 30
0.0
  0
SEQEND
  5
50D
  8
LAYER_1
  0
ENDSEC
  0
EOF
